John Butler Trio - Under An Indian Sky tab

John Butler Trio - Under an Indian Sky

Transcribed by Timothy Atkinson (timage@gmail.com)

Tuning - C3C2-G3G2-C4C3-G4G4-C4C4-E4E4
Capo - 4th Fret (tab relative to capo)

Key:
* = Harmonic
h = hammer on
p = pull off
~ = let ring
^^^ = play section as many times as necessary

[0:00]|---------------------------------------------------------||-----------------------0h2p0h3p2p0-------0--0--0--0------||-------------------0h3-------------3-3/5--5--5--5--5--5--||---------------0h2---------------------------------------||---------0h3h5-------------------------------------------||-12*---------------------------------------0--0--0--0----| ^^^
|------------------------------------------------------------------------------||---------------0h2p0h3p2p0----------------------------------------------------||-----------0h3-------------3-3/5\3-3-3\1-1--1---0h1p0---0h1p0---------0---0---||-------0h2--------------------------------0--0--------5-------5-5/7-7--7---7--|(after,pluck|-0h3h5------------------------------------------------------------------------| the higher|-------------------------------------------0--0-------------------------0---0-| octave ^^^ ^^^ string
|-------------------------------------------------------------------| |----||---------------0h2p0h3p2p0-----------------3-3-3-3/5-5-5-5/7-7-7-7-| |----||-----------0h3-------------3-3/5-5-3/7-7-7-------------------------| |----||-------0h2---------------------------------------------------------| |-0--| pluck
open strings every now and then|-0h3h5-----------------------number of plucks here aren't exact----| |----||-------------------------------------------------------------------| |--0-|
|-------------------------------------------------------------------||-8h10-8-8h10p8p7-7-7h8p7p5-5/7\3-3-2--2--2h3-2p0-------------------||-------------------------------------------------3--3--3--3--3--3--||------------------------------------0--0---------------------------| Pluck more open|-------------------------------------------------------------------|strings like above|-------------------------------------0--0--------------------------|
|------------------------------------------------------------------------------||---------3--3-3--------0-0h2-2-2h3-2-3p2----------7--7--77---7-/5--5---3----0-||-3/5-5-5--5--5-5---0h3-3-3-----3-----3---3-3/5-----5--5---5--5-/3---3--3-3--0-||-------------------0---------------------------0------------------------------||------------------------------------------------------------------------------||-----------0----0-------------------------------0---0--0---0-----0---0----0---|
|---------------------------------------------------------------------------------||-0---2-2------8--8---10-10-10-------7-7--5--3-0-------8--8--8--8----7---7-7--7-7-||-0h3-3-3/5-----5--5----------5--0h3----3--3-3-3-3-3/5--5--5--5--5--3-3-3-3-3--3--||-----------0---------------------------------------------------------------------||---------------------------------------------------------------------------------||------------0---0--0------0---0------0--0---------------0--0--0--0--------0-0--0-|
|-----8--8--8--8--8----10---10---10---10---10---10\8-8-8---6--6\4-4-4---3-3--3--3-1-------||-----------------------------------------------------------------------------------3-2-0-||-3/8--8--8--8--8--8/10--10---10---10---10---10-10\8--8-8\7-7-7\5---5\3-3--3--3---------3-||-----------------------------------------------------------------------------------------||-----------------------------------------------------------------------------------------||-------0--0--0--0---------0----0----0----0----0-------------0-----------0--0--0----------|
|-----8---8---8----10---10---10---10---10----6---6---6---4---4---3---3--1-1-1-||-----------------------------------------------------------------------------||--3/8-8---8---8\10--10---10---10---10---10\7-7---7---7\5-5---5---3---3-------||-----------------------------------------------------------------------------||-----------------------------------------------------------------------------||-0-----0---0----------0----0----0----0----0---0---0-------0---0---0---0------|
|----1----------1---------|----------|-1-|---------||--3--3-3-2-2-2-------2---|-2--------|---|-2-------||-3---------------3-3--3--|--3-------|---|--3------||-------------------------|-----(x4)-|---|-----(x4)||-------------------------|----------|---|---------||----------------0------0-|---0------|---|---0-----|
|-------------------------------------||-------------------0h2p0h3p2p0-------||---------------0h3-------------3-3/5-||-----------0h2-----------------------||-0-0-0h3h5---------------------------||-------------------------------------|
|-3-1----------------------------3-1-------------------------3-||-----3-2-0---0-2-3-2-0---0-2--------3-2-0---0-2-3-2-0---0-2---||-----------3-----------3-----0------------3-----------3-------||-----------------------------0--------------------------------||-----------------------------0--------------------------------||-----------------------------0--------------------------------|
|-3-1--------------------------3-1---------------------------||-0---3-2-0---0-2-3-2-0---0-2--0---3-2-0---0-2-3-2-0---0-----||-0---------3------------3-----0---------3-----------3-------||------------------------------0---------------------------0-||------------------------------0---------------------------0-||------------------------------0---------------------------0-|
|-----3-1-------------------------3-1---------------------||---------3-2-0---0-2-3-2-0-----------3-2-0---0-2-3-2-0---||---------------3-----------3---------------3-------------||-0-0-------------------------0-0-------------------------||-0-0-------------------------0-0-------------------------||-0-3-------------------------3-0-------------------------|
|-----3-1-------------------------3-1---------------1-0---||---------3-2-0---0-2-3-2-0-----------3-2-0---0-2-3-2-0---||---------------3-----------3---------------3-------------||-0-0-------------------------0-0-------------------------||-0-0-------------------------0-0-------------------------||-0-3-------------------------3-0-------------------------|
|-----3-4-3-1-3-4-3-1-3-4-3-3---4-3-1-3-1-------------------||---------------------------0-------------3-2-0---0-2-3-2-0-||---------------------------0-------------------3-----------||-0-0-----------------------0-0-----------------------------||-0-0-----------------------0-0-----------------------------||-0-3-----------------------3-0-----------------------------|
|-----0-0-0-0---------0-|-0-6-4-3-1-3-4-6-4-3-1-3-3------||-----3-3-2-2-0-0-0---0-|-0------------------------0-0-0-||-----0-0-0-0-3-3-3/5-5-|-0------------------------0-0-0-||-0-0-0-0-0-0-0-0-0---0-|-0------------------------0-0-0-||-0-0-0-0-0-0-0-0-0---0-|-0------------------------1-1-0-||-0-3-3-3-3-3-3-3-0---3-|-0------------------------------|
|-6-4-3-1-3-1-------------------|-----6-----6-----6-----6----6-||-------------3-2-3-2-3-2-0-0-0-|-2-3---2-3---2-3---2-3--2-3---||-------------------------0-0-0-|------------------------0-0-0-||-------------------------0-0-0-|------------------------0-0-0-||-------------------------1-1-0-|------------------------1-1-0-||-------------------------------|------------------------------|
|-----6-----6--4-4/6-6-8-8-8-6-4-3-3-4-3-4-6-4-1-1-4-3-4-3-1-0-0-0-0-||-2-3---2-3----0-0-0-0-0-0-0-0-0-0-0-0-0-0-0-0-0-0-0-0-0-0-0-3-3-2-2-||--------------0-0-0-0-0-0-0-0-0-0-0-0-0-0-0-0-0-0-0-0-0-0-0-0-0-0-0-||--------------0-0-0-0-0-0-0-0-0-0-0-0-0-0-0-0-0-0-0-0-0-0-0-0-0-0-0-||--------------1-1/3-3/5-5-0-0-0-0-0-0-0-0-0-0-0-0-0-0-0-0-0-0-0-0-0-||--------------------------------------------------------------------|
|-4-4/6-6/8-8-8-6-4-3-3-4-3-6-4-1-0-0-0-0-6-6-6-6-6-||-0-0-0-0-0-0-0-0-0-0-0-0-0-0-0-0-2h3p2-2h3p2-2h3p2-| <--repeat this hammer-on/pull-off|-0-0-0-0-0-0-0-0-0-0-0-0-0-0-0-0-0-0-0-0-0-0-0-0-0-| combination while strumming|-0-0-0-0-0-0-0-0-0-0-0-0-0-0-0-0-0-0-0-0-0-0-0-0-0-||-1-1/3-3/5-5-5-5-5-5-5-5-5-5-5-5-5-5-5-5-5-5-5-5-5-||---------------------------------------------------|
|---------------------6-8-8-8-8-6-6-8-8-10-10-13-13-13-11-10-8-8-||-8-8-8\3-3-3/5-5-5-0-0-0-0-0-0-0-0-0-0-0--0--0--0--0--0--0--0-0-||-0-0-0-0-0-0-0-0-0-0-0-0-0-0-0-0-0-0-0-0--0--0--0--0--0--0--0-0-||-8-8-8\3-3-3/5-5-5-0-0-0-0-0-0-0-0-0-0-0--0--0--0--0--0--0--0-0-||-0-0-0-0-0-0-0-0-0-0-0-0-0-0-0-0-0-0-0-0--0--0--0--0--0--0--0-0-||-8-8-8\3-3-3/5-5-5-0--------------------------------------------|
|-4-4/6-6/8-8-||-0-0-0-0-0-0-||-0-0-0-0-0-0-||-0-0-0-0-0-0-||-1-1/3-3/5-5-||-------------|
Tap to rate this tab
 
# A B C D E F G H I J K L M N O P Q R S T U V W X Y Z