John Frusciante – Shadows Collide With People tab

**********************************
John Frusciante
"Shadows Collide With People"
**********************************

                             ***Carvel***
Standard Tuning

Intro

Bm A G

Verse

Bm A G

Chorus

|------------------------------------||-7--5--5--3--(5)--------------------||-7--6--6--4--(6)--------------------||-7--7--7--5--(7)--------------------||-5--7--4--5--(7)--------------------||----5-----3--(5)--------------------|
() Play only first time Bridge (Sending a dummy) A G Interlude 2nd time
|----------------------------|-----||-------7-------7------10-12-|-----||---7-9-----7-9---9--7-------|-(4b)||-9-------9------------------|-----||----------------------------|-----||----------------------------|-----|
Have you gone.... Bm D A G ***Omission*** Intro and Verse C G7 Am Fadd9 Chorus "Never Now We Need The Other" Just strum this the way you here it
|--5--------||--5--------||--5--------||--7--------||--8--------||-----------|
Interlude 1
|-12--10--12------12--15--12----||-------------------------------||-------------------------------||-------------------------------||-------------------------------||-------------------------------|
Interlude 2 Pick fast
|-15--20-19-15--15--20-19-17----||-------------------------------||-------------------------------||-------------------------------||-------------------------------||-------------------------------|
Interlude 3
|-12-15-17-12--12-15-17-12--17b-||-------------------------------||-------------------------------||-------------------------------||-------------------------------||-------------------------------|
|-12-15-17-12-13-12----15--12-12||-------------------13----------||-------------------------------||-------------------------------||-------------------------------||-------------------------------|
***Regret*** Standard Tuning Into
|----------------------------------||---------1---------------1--------||-------0---0-----------0---0------||-----2-------2-------2-------2----||-3-3-----------3-3-3-----------3--||----------------------------------|
|------------------------------0---||---------1--------------1---------||-------0---0----------0---0-------||-----2-------2------2-------2-----||-3-3-----------3-3-3--------------||----------------------------------|
|---------0---------------0--------||-------1---1-----------1---1------||-----2---------------0------------| x 2|---2---------------2--------------||-0-----------0-2-3-----------3-2--||----------------------------------|
|----------------------------------||-------3----------------1---------||----------------------2---2-------||-----5---5----------3-------3-----||---5-------5------------------3---||-3-----------3-2-1--------------1-|
|-----0-------0-------0----0---3---||-----1-------1-------1----1---0---||-----2-------2-------2----2---0---||-----2-------2-------2----2---0---||-0-0-0---0-0-0---0-0-0--0-0-2-2---||----------------------------------|
Verse C G Am I... Regret... My Past F Stay Alone C G Stay Alone ***Ricky*** Tuned down half-step
C/B Am/Geb---0-----0---Bb---1-----1---Gb---0-----2---Db---x-----2---Ab---2-----x---Eb---x-----3---
C C/B Am Am/G I was afraid to be me F G Be anyone you want to be F G Be anyone you want to be C C/B Am Am/G I dont blame my weak F G For my not being able to speak F G C C Clearly about things Ive said before Em F C G And if its light outside night will fall night will fall Em F C G F Em F And if its life it resolves it resolves C G Dm F C G Dm F C G Dm F C G Dm F Anywhere you are in a maze is a lie C G Dm F C G Dm F Anywhere you are on a page you still go to the right C G Dm F C G Dm F Anytime theres no ground below you you're in the sky C G Dm F Anytime youre afraid its gonna be alright C G Dm Dm Its gonna be alright C C/B Am Am/G I was a flame in the night F G I heard what i wanted to hear F G And the moment I disappeared C C/B Am Am/G I grew the size of all outside F G Cuz I became one with the night F G C C I became one with the night Em F C G G And if its real its not all its not all there is Em F C G F Em F C C Theres a lot in what appears not to be there at all C Am F G C C G F And you can function as someone besides who you are C Am F G C C G F And you can function as someone besides who you are C Am F G C C G F And you can function as someone besides who you are C Am F G Am And you can function as someone besides who you are ***Second Walk*** S.T. only progression: # = sharp A x 0 2 2 2 x E 0 2 2 1 0 0 F#m 2 4 4 2 2 2 1st lead simply a C# note
2nd leade-------------- ---------- ---------------b-17h19--19-19- -19p17---- --------17-----g-------------- -------18- -16b-------16b-d-------------- ---------- ---------------a-------------- ---------- ---------------e-------------- ---------- ---------------
synth during vocals A G# F# E F# E C# E F# E F# G# F# E C# E 3rd Lead
(imporant licks) we----------- --------------------b----------- ------------17------g-(16b)-r16- -13b14r13-----------d----------- ----------------16--a----------- --------------------e----------- --------------------
***Every Person*** S.T. G#m you take me by the hand Ebm G#m A hand's all I feel right now Ebm It's all I am G#m It's all that I am You think that I'm a man Ebm G#m I beg to differ E#m G#m For I am her as much as I'm me C#m You know this moment in time F# B F# B Is all my life C#m Every day is each day that's past F# B F# B E B E Ebm G#m Every person alive is everyone who's died ah....] G#m A ship out in the distance Ebm G#M Is here if I draw it Ebm G#m Multiply time by letting it go by You paint a star Ebm G#m You give many years ago Ebm G#m New life and it appreciates it C#m You know this moment in time F# B F# B Is all my life C#m Every day is each day that's past F# B F# B E B Ebm G#m Every person alive is everyone who's died ***Wednesday's Song*** S.T. Cm 8 x 10 8 8 x Fmadd6 x 8 12 10 9 x Bb7add2 6 x 8 7 9(8) c added in verse only F-7sus2 x 8 10 8 8 x Ab 4 6 6 5 4 x Eb x 6 8 8 8 x Fm x 8 10 10 9(8) c added in 2nd chorus Cm/G x 10 10 8 8 x Db x 4 6 6 6 x F x 8 7 5 6 x Bbm 6 x 8 6 6 x Cm Fmadd6 Bb7add2 Cm F-7sus2 Cm Fm You'll make it through the day Bb7add2 Cm F-7sus2 (with c) See things another way and behold Ab Eb Fm Listen to Wednesday's song Ab Eb Fm This night you go home alone B7 Cm How the sane go upright Cm/G Fmsus2 How you look another night You're back under my hat And even knowing that you're a whore Nothing ever meant more Than switching rooms through a door Out into another one Frames flash inward And you know... Db Ab Eb F (arp) You know, I have seen the world enough Db Ab Eb F (arp) I've drowned my thoughts a lot Db Ab Eb F(arp) Db Deep in rains that swirl above Db Ab Eb Fm/Fsus2 (no root) I canceled heaven I concede (pickup notes are Eb Bb B back into verse) Another word to say When everythings ok you down And pulling up the slack And never coming back An alarm Ringing to set the sun No one ever becomes What others thought they should've been Inside they're what they can see You know I do miss this girl To show I am in a swirl of sun Being what I've got The joy Db Ab Eb Bbm I canceled heaven I concede Db Ab Eb Bbm Everything that I believe Db Ab Eb Fm/Fsus2 (no root) I canceled heaven I concede ***This Cold*** Intro Am F C G
|---------------12-15-----------------------||-10--12-13-----------15---10-12-13---------||------------9-----------------------9-----||---------------------------------------10--||-------------------------------------------||-------------------------------------------|
Pre-Chorus Dm Am C G Chorus "I Feel THis Cold" F G Am ***Song to Sing When Im Lonely*** S.T. Intro : B Ebm C# G#m (arpeggio) Verse : Same as intro (no arpeggio) x2 Chorus : "I'll be you I do ...; F# C# G#m x2 then : Arpeggio with strung e B and G F# C# G#m x1 then : G#m F# C# G#m F# C# F# G#m B F# G#m x4 End : Arpeggio F# C# G#m On strung e B G F# : C#: (important to play this way for arpeggio)
e- 2 9 B-2 9 G-3 10 D-4 11 A-4 11 E-2 9
G#m : B: Ebm: 4 2 6 4 4 7 4 4 8 6 4 8 6 2 6 4 x x ***Time Goes Back*** G - D Dsus4 - Am - C verse G - Em - C - Em chorus Am - C Otra Verses G - D Dsus4 - C - C For the bridge arpeggiate chords ***In Relief*** G F C To seem you're in me and over me E Am Relief in all things F Em And all things shoot through me D C And all things shoot through you Em Wherever you are (repeat) To seem you're a dream when you never stop And we ask you what you are G Belief as one with what you believe in F Travel slowly Em Am Move in circles Em Am You know time grows old in reverse Em Em Life as a thing that began Am Em And was magnified Am Em And made the fist fire and the last one (repeat) To mean everything you never say Every single thing going every way When you leasder's gone He means to make you strong He never went away Cuz what you need you are Em - Am - Em - Am - G ***Water*** intro is simply sounds/synthesizers... like fennesz E x 7 6 4 5 4 B 7 9 9 8 7 7 A 5 7 7 6 5 5 E
Riffe---4---4-4----------------------b---4---4-4----------------------g---4---4-4---------4---6--------d--------------------------------a--------------------------------e----------------6---------------
for verse fill E x 7 9 9 9 7 Outro chords C# x 4 6 6 5 x E 0 2 2 1 0 0 B x 2 4 4 4 x A x 0 2 2 2 x solo isnt anythin special (key of E if you didnt know) ***Cut Out*** Bm,A Bm,A,E F#m,A,E Bm F#m---A E repeat all and when you arrive at F#m,A,E the final is Bm,A. end on Em ***Chances*** Version 1 : D#m G# C# F# This is the time to die D#m G# C# F# I'm not someone on whom to rely D#m G# C# A#m Chances come and chances go F# G# C# This is letting go A#m F#G# I feel the tightening of the dawn A#m F# G# The creation of something I've sung A# m F# G# No one goes back 'cause they're all there F# G# C# Are you everywhere A#m F# G# Becoming who you think you are A#m F# G# In order to do your part A# m F# G# In the multi-dimensional scheme F# G#m C# You'll know what I mean D#m G# C# F# This is the time to die D#m G# C# F# I'm not someone on whom to rely D#m G# C# A#m Chances come and chances go F# G# C# This is letting you know A#m F# G# I'm almost where I'll never be A#m F# G# This cutting off of fare like a string A#m F# G# A line that falls to the floor F# G#m C# And I'm not me anymore ***23 go in to end*** Fm,Cm,Eb,Bb ***The Slaughter*** Version 1 : Tabbed by Rondo INTRO: The Song starts with a simple E CHORUS 1: E - Ab - A - C#m E - Ab - A - A#dim7 C#m - A VERSE: Ab - A - A#dim7 - B C#m - Cdim7 - E - F#m6 Amaj7 - Am6/F# - Amaj7 - F#m6 E - Cdim7 - C#m - B - Amaj7 CHORUS 2: C#m - B - A - A/F7 C#m - B - A - Amaj7 VERSE CHORUS 1 OUTRO: C#m - B - A - A/F7(something like that) C#m - B - A - Amaj7 End on Amaj7 Intro Chorus 1 Verse Chorus 2 Verse Chorus 1 Outro Chords:
A#dim7-Cdim7-F#m6-Am6/F#-A/F7 | | | | |e-x-----x-----x-----x-----xB-2-----4-----2-----1-----10G-0-----2-----2-----2-----8D-2-----4-----1-----1-----10A-1-----3-----x-----x-----0E-x-----x-----2-----2-----x
WELL THERE YOU GO TOTAL WRITING+MAKING UP TIME+19.5 HORS THANK YOU FOR SUPPORTING JF
Please rate this tab:
x1.0