John Frusciante – Time Is Nothing tab

TIME IS NOTHING
JOHN FRUSCIANTE


                                                                   
E||----------------------------|----------------------------------|B||---------5---------5--------|------------8-----------8---------|G||-----5---------5---------5--|-------9-----------9-----------9--|D||--7----7----7----7----7-----|--7/10---10----10----10----10-----|A||----------------------------|----------------------------------|E||----------------------------|----------------------------------|
--------------------------------------|---------------------------------|------------10------------10----------|-----------8-----------8---------|------11------------11------------11--|------9-----------9-----------9--|--12-----12-----12-----12-----12------|--10----10----10----10----10-----|--------------------------------------|---------------------------------|--------------------------------------|---------------------------------|
----------------------------|----------------------------------|---------5---------5--------|------------8-----------8---------|-----5---------5---------5--|-------9-----------9-----------9--|--7----7----7----7----7-----|--7/10---10----10----10----10-----|----------------------------|----------------------------------|----------------------------|----------------------------------|
--------------------------------------|---------------------------------|------------10------------10----------|-----------8-----------8---------|------11------------11------------11--|------9-----------9-----------9--|--12-----12-----12-----12-----12------|--10----10----10----10----10-----|--------------------------------------|---------------------------------|--------------------------------------|---------------------------------|
---------5---------5--------|------------8-----------8---------|---------5---------5--------|------------8-----------8---------|-----5---------5---------5--|-------9-----------9-----------9--|--7----7----7----7----7-----|--7/10---10----10----10----10-----|----------------------------|----------------------------------|----------------------------|----------------------------------|
------------10------------10----------|------------10------------10----------|------11------------11------------11--|--12-----12-----12-----12-----12------|--------------------------------------|--------------------------------------|
----------8---------8---------8----------|---------5---------5--------|----------8---------8---------8----------|---------5---------5--------|-----9---------9---------9---------9-----|-----5---------5---------5--|--10---10---10---10---10---10---10---10--|--7----7----7----7----7-----|-----------------------------------------|----------------------------|-----------------------------------------|----------------------------|
------------8-----------8---------|------------10------------10----------|------------8-----------8---------|------------10------------10----------|-------9-----------9-----------9--|------11------------11------------11--|--7/10---10----10----10----10-----|--12-----12-----12-----12-----12------|----------------------------------|--------------------------------------|----------------------------------|--------------------------------------|
----------8---------8---------8----------|----------8---------8---------8----------|-----9---------9---------9---------9-----|--10---10---10---10---10---10---10---10--|-----------------------------------------|-----------------------------------------|
------------10------------10----------|-----------8-----------8---------|------------10------------10----------|-----------8-----------8---------|------10------------10------------10--|------9-----------9-----------9--|--12-----12-----12-----12-----12------|--10----10----10----10----10-----|--------------------------------------|---------------------------------|--------------------------------------|---------------------------------|
------------10------------10----------|-----------8-----------8--8h10h8--|------------10------------10----------|-----------8-----------8--8-------|------10------------10------------10--|------9-----------9---------------|--12-----12-----12-----12-----12------|--10----10----10----10------------|--------------------------------------|----------------------------------|--------------------------------------|----------------------------------|
---------5---------5--------|------------8-----------8---------|---------5---------5--------|------------8-----------8---------|-----5---------5---------5--|-------9-----------9-----------9--|--7----7----7----7----7-----|--7/10---10----10----10----10-----|----------------------------|----------------------------------|----------------------------|----------------------------------|
------------10------------10----------|-----------8-----------8---------|------------10------------10----------|-----------8-----------8---------|------11------------11------------11--|------9-----------9-----------9--|--12-----12-----12-----12-----12------|--10----10----10----10----10-----|--------------------------------------|---------------------------------|--------------------------------------|---------------------------------|
---------5---------5--------|------------8-----------8---------|---------5---------5--------|------------8-----------8---------|-----5---------5---------5--|-------9-----------9-----------9--|--7----7----7----7----7-----|--7/10---10----10----10----10-----|----------------------------|----------------------------------|----------------------------|----------------------------------|
------------10------------10----------|------------10------------10----------|------11------------11------------11--|--12-----12-----12-----12-----12------|--------------------------------------|--------------------------------------|
----------8---------8---------8----------|----------8---------8---------8----------|-----9---------9---------9---------9-----|--10---10---10---10---10---10---10---10--|-----------------------------------------|-----------------------------------------|
------------10------------10----------|-----------8-----------8---------|------------10------------10----------|-----------8-----------8---------|------10------------10------------10--|------9-----------9-----------9--|--12-----12-----12-----12-----12------|--10----10----10----10----10-----|--------------------------------------|---------------------------------|--------------------------------------|---------------------------------|
------------10------------10----------|------------10------------10----------|------10------------10------------10--|--12-----12-----12-----12-----12------|--------------------------------------|--------------------------------------|
----------8---------8---------8----------|----------8---------8---------8----------|-----9---------9---------9---------9-----|--10---10---10---10---10---10---10---10--|-----------------------------------------|-----------------------------------------|
------------10------------10----------|-----------8-----------8---------|------------10------------10----------|-----------8-----------8---------|------10------------10------------10--|------9-----------9-----------9--|--12-----12-----12-----12-----12------|--10----10----10----10----10-----|--------------------------------------|---------------------------------|--------------------------------------|---------------------------------|
------------10------------10----------|------------------------|------------10------------10----------|------------------------|------10------------10------------10--|--2--2--2----4--4--4----|--12-----12-----12-----12-----12------|--3--3--3----5--5--5----|--------------------------------------|--3--3--3----5--5--5----|--------------------------------------|--1--1--1----3--3--3----|
---------5---------5--------|------------8-----------8---------|---------5---------5--------|------------8-----------8---------|-----5---------5---------5--|-------9-----------9-----------9--|--7----7----7----7----7-----|--7/10---10----10----10----10-----|----------------------------|----------------------------------|----------------------------|----------------------------------|
------------10------------10----------|-----------8-----------8--8h10h8--|------------10------------10----------|-----------8-----------8--8-------|------11------------11------------11--|------9-----------9---------------|--12-----12-----12-----12-----12------|--10----10----10----10------------|--------------------------------------|----------------------------------|--------------------------------------|----------------------------------|
---------5---------5--------|------------8-----------8---------|---------5---------5--------|------------8-----------8---------|-----5---------5---------5--|-------9-----------9-----------9--|--7----7----7----7----7-----|--7/10---10----10----10----10-----|----------------------------|----------------------------------|----------------------------|----------------------------------|
------------10------------10----------|------------10------------10----------|------11------------11------------11--|--12-----12-----12-----12-----12------|--------------------------------------|--------------------------------------|
----------8---------8---------8----------|----------8---------8---------8----------|-----9---------9---------9---------9-----|--10---10---10---10---10---10---10---10--|-----------------------------------------|-----------------------------------------|
------------10------------10----------|-----------8-----------8---------|------------10------------10----------|-----------8-----------8---------|------10------------10------------10--|------9-----------9-----------9--|--12-----12-----12-----12-----12------|--10----10----10----10----10-----|--------------------------------------|---------------------------------|--------------------------------------|---------------------------------|
------------10------------10----------|------------10------------10----------|------10------------10------------10--|--12-----12-----12-----12-----12------|--------------------------------------|--------------------------------------|
----------8---------8---------8----------|----------8---------8---------8----------|-----9---------9---------9---------9-----|--10---10---10---10---10---10---10---10--|-----------------------------------------|-----------------------------------------|
------------10------------10----------|-----------8-----------8---------|------------10------------10----------|-----------8-----------8---------|------10------------10------------10--|------9-----------9-----------9--|--12-----12-----12-----12-----12------|--10----10----10----10----10-----|--------------------------------------|---------------------------------|--------------------------------------|---------------------------------|
------------10------------10----------|--------------------------|------------10------------10----------|--10----10----------12----|------10------------10------------10--|--10----10----12----12----|--12-----12-----12-----12-----12------|--10----10----12----12----|--------------------------------------|--8-----8-----10----10----|--------------------------------------|--------------------------|
--5----------------||--5----------------||--5----------------||--7----------------||--7----------------||--5----------------||
solo part :
----------------------|----------------------|--------------------|----------------------|----------------------|--------------------|----------------------|----------------12----|--------------------|----------------14----|--12------------------|--14----------------|--12------------------|----------------------|--------------------|----------------------|----------------------|--------------------|
------------------|----------------------|----------------------|------------------|----------------------|----------------------|------------------|----------------------|----------------------|------------------|----------------------|----------------------|------------------|--12------------13b---|--10------------12b---|------------------|----------------------|----------------------|
--------------------|--------------------|--------------------------|--------------------|--------------------|--------------------------|--------------------|--------------------|--------------------------|--------------------|--------------14----|--12------------12-14-12--|--7h-5--------------|--------------------|--------------------------|--------------------|--------------------|--------------------------|
------------------------|--------------------------|------------------------|------------------------|--------------------------|------------------------|------------------------|--------------------------|------------------------|------------------------|--12------------12-14-12--|------------------------|--15------------12--15--|--------------------------|--15------------12--15--|------------------------|--------------------------|------------------------|
--------------------------|--------------------|--------------------|--------------------------|--------------------|--------------------|--------------------------|--------------------|--14----------------|--12------------12-14-12--|--------------------|--------------------|--------------------------|--15----------------|--------------------|--------------------------|--------------------|--------------------|
----------------------|--------------------|------------------|----------------------|--------------------|------------------|--14--------12--------|--------------------|------------------|----------------------|--14----------------|------------------|----------------------|--------------------|------------------|----------------------|--------------------|------------------|
THANK U IF IN DOUBT MAIL: linden_004@yahoo.com
Please rate this tab:
x1.0