John Frusciante - Head Beach Arab Live tab

John Frusciante                                                                           
Head (Beach arab) live at Viper Room '97
Song is played with Fender Jaguar

Notes are corect but you'll also have to figuare it out a bit 
yourself 
You have to listen to the song to know what is actually played
My 2nd tab...
tabed by Grega Kostanjšek
any corections or questions? you can always contact me at 
kostanjsek@siol.net

           

John Fusciante: Head (Beach Arab) Live at Viper Room '97  
                  

                                                                
E||--------------------|--------------------|------------------|B||--------------------|--17----------------|------------------|G||----------12--------|--------------------|------------------|D||--------------------|--------------------|------------------|A||--------------------|--------------------|------------------|E||--------------------|--------------------|------------------|
--12----------------------|--------------------------|------------------|--------12----------------|--------------------12----|------------------|--------------13----------|--------------12----------|------------------|--------------------14----|--------12----------------|------------------|--------------------------|--14----------------------|------------------|--------------------------|--------------------------|------------------|
--------------------|--------------------|------------------|------------------|--12----------------|----------12--------|------------------|------------------|--13----------------|----------13--------|------------------|------------------|--------------------|--------------------|------------------|------------------|--------------------|--------------------|------------------|------------------|--------------------|--------------------|------------------|------------------|
------------------|--1-------------------|--1-------------------|------------------|--3--------3--3--3----|--3--------3--3--3----|------------------|--2--------3--3--3----|--2--------3--3--3----|------------------|--0--------3--3--3----|--0--------3--3--3----|------------------|-----------1--1--1----|-----------1--1--1----|------------------|----------------------|----------------------|
--1-------------------|-------------------|--1-------------------|--3--------1--1--1----|--1----------------|--3--------3--3--3----|--2--------2--2--2----|--0----------------|--2--------3--3--3----|--0--------3--3--3----|--2----------------|--0--------3--3--3----|-----------3--3--3----|--3----------------|-----------1--1--1----|----------------------|-------------------|----------------------|
--1-------------------|--1-------------------|-------------------|--3--------3--3--3----|--3--------1--1--1----|--1----------------|--2--------3--3--3----|--2--------2--2--2----|--0----------------|--0--------3--3--3----|--0--------3--3--3----|--2----------------|-----------1--1--1----|-----------3--3--3----|--3----------------|----------------------|----------------------|-------------------|
--------------------------|--------------------------|--3--3--3--3--1--1--1--1--|--1--1--1--1--1--1--1--1--|--3--3--3--3--2--2--2--2--|--0--0--0--0--0--0--0--0--|--3--3--3--3--3--3--3--3--|--2--2--2--2--2--2--2--2--|--1--1--1--1--3--3--3--3--|--3--3--3--3--3--3--3--3--|--------------------------|--------------------------|
--------------------------|--------------------------|--3--3--3--3--1--1--1--1--|--2--2--2--2--2--2--2--2--|--3--3--3--3--2--2--2--2--|--2--2--2--2--2--2--2--2--|--3--3--3--3--3--3--3--3--|--2--2--2--2--2--2--2--2--|--1--1--1--1--3--3--3--3--|--0--0--0--0--0--0--0--0--|--------------------------|--------------------------|
--1--1--1--1--------------|--1--1--1--1--------------|--3--3--3--3--3--3--3--3--|--3--3--3--3--3--3--3--3--|--2--2--2--2--3--3--3--3--|--2--2--2--2--3--3--3--3--|--0--0--0--0--3--3--3--3--|--0--0--0--0--3--3--3--3--|--------------1--1--1--1--|--------------1--1--1--1--|--------------------------|--------------------------|
--1--1--1--1--------------|-----------------------|--1--1--1--1--------------|--3--3--3--3--1--1--1--1--|--1--1--1--1--1--------|--3--3--3--3--3--3--3--3--|--2--2--2--2--2--2--2--2--|--0--0--0--0--0--------|--2--2--2--2--3--3--3--3--|--0--0--0--0--3--3--3--3--|--2--2--2--2--2--------|--0--0--0--0--3--3--3--3--|--------------3--3--3--3--|--3--3--3--3--3--------|--------------1--1--1--1--|--------------------------|-----------------------|--------------------------|
--1--1--1--1--------------|--1--1--1--1--------------|-----------------------|--3--3--3--3--3--3--3--3--|--3--3--3--3--1--1--1--1--|--1--1--1--1--1--------|--2--2--2--2--3--3--3--3--|--2--2--2--2--2--2--2--2--|--0--0--0--0--0--------|--0--0--0--0--3--3--3--3--|--0--0--0--0--3--3--3--3--|--2--2--2--2--2--------|--------------1--1--1--1--|--------------3--3--3--3--|--3--3--3--3--3--------|--------------------------|--------------------------|-----------------------|
--------------------------|--------------------------|--3--3--3--3--1--1--1--1--|--1--1--1--1--1--1--1--1--|--3--3--3--3--2--2--2--2--|--0--0--0--0--0--0--0--0--|--3--3--3--3--3--3--3--3--|--2--2--2--2--2--2--2--2--|--1--1--1--1--3--3--3--3--|--3--3--3--3--3--3--3--3--|--------------------------|--------------------------|
--------------------------|--------------------------|------------------|--3--3--3--3--1--1--1--1--|--2--2--2--2--2--2--2--2--|------------------|--3--3--3--3--2--2--2--2--|--2--2--2--2--2--2--2--2--|2-----------------|--3--3--3--3--3--3--3--3--|--2--2--2--2--2--2--2--2--|------------------|--1--1--1--1--3--3--3--3--|--0--0--0--0--0--0--0--0--|------------------|--------------------------|--------------------------|------------------|
--------------------------|--------------------------|-------------------|--1--1--1--1--1--1--1--1--|--2--2--2--2--3--3--3--3--|--3----------------|--2--2--2--2--0--0--0--0--|--2--2--2--2--3--3--3--3--|--3----------------|--3--3--3--3--2--2--2--2--|--2--2--2--2--3--3--3--3--|--3----------------|--3--3--3--3--3--3--3--3--|--0--0--0--0--1--1--1--1--|--1----------------|--------------------------|--------------------------|-------------------|
-----------------------|------------------|--------------------|--3---------------3----|------------------|-----------3--------|-------3-------3--3----|------------------|------3----3--------|------------3----------|------------------|------3-------------|-----------------------|------------------|--------------------|-----------------------|------------------|--------------------|
------------------|------------------|-------------------|------------------|------------------|------------------|-------------------|------------------|------------------|------------------|--x----------------|------------------|------------------|------------------|-------------------|------------------|------------------|------------------|-------------------|------------------|------------------|------------------|-------------------|------------------|
Tap to rate this tab
 
# A B C D E F G H I J K L M N O P Q R S T U V W X Y Z