Boom Boom tab ver. 2 with lyrics by John Lee Hooker - Easy chords and tabs for guitar

John Lee Hooker – Boom Boom tab ver. 2



----------------------------------|----------------------------------|--2/4---4-2-0--------1-2-2-1------|--------------2-0-2--2-2-2-2------|---------------------2-4-4-2------|---------------------0-0-0-0------|
--------------------------------|--------------------------------|-----0-3-2-0--------1-2-2-1-----|---2---------2-0-2--2-2-2-2-----|--------------------2-4-4-2-----|--------------------0-0-0-0-----|
--------------------------------|--------------------2-3-3-2-----|---2/4-0-2-0--------2-2-2-2-----|-------------2-0-2--2-4-4-2-----|--------------------0-0-0-0-----|--------------------------------|
-------------------------------|-------------------------------|-----0-3-2-0--------1-2-2-1----|---2---------2-0-2--2-2-2-2----|--------------------2-4-4-2----|--------------------0-0-0-0----|
------------------------------|------------------------------|--2/4-0-2-0-2-0--4-1-1-4------|-----------------4-2-2-4------|-----------------2-2-2-2------|-----------------0-0-0-0------|
------------------------------|------------------------------|--------0-0----1-2-2-1--------|----0-2-----2--2-2-2-2--------|--2------------2-4-4-2--------|---------------0-0-0-0--------|
boom boomboom----------------------------------|----------------------------------|--------------2/4-2-0-------------|----------------------2-0-2-------|----------------------------------|----------------------------------|
(played at the same time)-----------------------------|-----------------------------|--------------1-2-2-1--------|--------------2-2-2-2--------|--------------2-4-4-2--------|--------------0-0-0-0--------|
----------------------------------|----------------------------------|--------------2/4-2-0-------------|----------------------2-0-2-------|----------------------------------|----------------------------------|
(played at the same time)-----------------------------|-----------------------------|--------------1-2-2-1--------|--------------2-2-2-2--------|--------------2-4-4-2--------|--------------0-0-0-0--------|
----------------------------------|----------------------------------|--------------2/4-2-0-------------|----------------------2-0-2-------|----------------------------------|----------------------------------|
(played at the same time)-----------------------------|--------------2-3-3-2--------|--------------2-2-2-2--------|--------------2-4-4-2--------|--------------0-0-0-0--------|--------------0-0-0-0--------|
----------------------------------|----------------------------------|--------------2/4-2-0-------------|----------------------2-0-2-------|----------------------------------|----------------------------------|
(played at the same time)-----------------------------|-----------------------------|--------------1-2-2-1--------|--------------2-2-2-2--------|--------------2-4-4-2--------|--------------0-0-0-0--------|
----------------------------------|----------------------------------|--------------2/4-0-2-0-2-0-2-----|----------------------------------|----------------------------------|----------------------------------|
(played at the same time)-----------------------------|-----------------------------|--------------4-1-1-4--------|--------------4-2-2-4--------|--------------2-2-2-2--------|--------------0-0-0-0--------|
------------------------------|------------------------------|--------0-0----1-2-2-1--------|----0-2-----2--2-2-2-2--------|--2------------2-4-4-2--------|---------------0-0-0-0--------|
Please rate this tab:
x1.0