Souvenirs tab ver. 2 with lyrics by John Prine - Easy chords and tabs for guitar

John Prine – Souvenirs tab ver. 2

Title: Souvenirs
Artist: John Prine
Words: John Prine
Music: John Prine
Tempo = 170
Steel Guitar

Apologies for the complicated repeats, but this is exported from Guitar Pro, which is 
much clearer for reading that sort of thing.

Capo 5th fret (2nd fret in more recent live versions)

*E|-----------0----|--0h------0-----------------|----------------------------|B|-----3--3-------|-----------------3----------|-----3--------3-------------|G|-----------2----|--------2-----------2--0----|-----------------------0----|D|--0--0--0-------|--0-----------0-------------|--------0-----------0-------|A|----------------|----------------------------|----------------------------|E|----------------|----------------------------|--3-----------3-------------|
----------------------------|-----------0-----------2----|-----3-----------------0----|-----2-----------2----------|-----------0-----0----------|----------------------------|--------0-----------0-------|--------2-----------2-------|----------------------------|--0-----------0-------------|--3-----------2-------------|----------------------------|
--0h-2-----0----------------|--0h-2-----2-----------5----|-----------------3----------|-----------------3----------|--------2-----------2-------|--------2-----------2-------|--0-----------0-------------|--0-----------0-------------|----------------------------|----------------------------|----------------------------|----------------------------|
-----2-----0----------------|----------------------------|-----------------3----------|-----3--------3-------------|--------2-----------2--0----|-----------------------0----|--0-----------0-------------|--------0-----------0-------|----------------------------|----------------------------|----------------------------|--3-----------3-------------|
----------------------------|-----------0-----------2----|-----3-----------------0----|-----2-----------2----------|-----------0-----0----------|----------------------------|--------0-----------0-------|--------2-----------2-------|----------------------------|--0-----------0-------------|--3-----------2-------------|----------------------------|
-----0----------------------|-----------0----------------|-----------3-----2----------|--3--------------3----------|----------------------------|--------2-----------2-------|--------2-----------2-------|--0-----------0-------------|--0-----------0-------------|----------------------------|----------------------------|----------------------------|
Verse
||-0h-2-----0----------------|--0h-2-----2-----------2L---|||----------------3----------|-----------------3----------|||o------2-----------2-------|--------2-----------2-------|||o0-----------0-------------|--0-----------0-------------|||---------------------------|----------------------------|||---------------------------|----------------------------|
--2--------0----------------|----------------------------|-----------------3----------|--------3--------3----------|--------2-----------2--0----|-----------------------0----|--0-----------0-------------|--------0-----------0-------|----------------------------|----------------------------|----------------------------|--3-----------3-------------|
----------------------------|-----------0-----------2----|-----3-----------------0----|-----2-----------2----------|-----------0-----0----------|----------------------------|--------0-----------0-------|--------2-----------2-------|----------------------------|--0-----------0-------------|--3-----------2-------------|----------------------------|
-----0----------------------|-----------0----------------|-----------2-----0----------|-----------------3----------|----------------------------|--------2-----------2-------|--------2-----------2-------|--0-----------0-------------|--0-----------0-------------|----------------------------|----------------------------|----------------------------|
--0h-2-----0----------------|--0h-2-----2-----------2L---|-----------------3----------|-----------------3----------|--------2-----------2-------|--------2-----------2-------|--0-----------0-------------|--0-----------0-------------|----------------------------|----------------------------|----------------------------|----------------------------|
--2--------0----------------|----------------------------|-----------------3----------|-----3--------3-------------|--------2-----------2--0----|-----------------------0----|--0-----------0-------------|--------0-----------0-------|----------------------------|----------------------------|----------------------------|--3-----------3-------------|
----------------------------|-----------0-----------2----|-----3-----------------0----|-----2-----------2----------|-----------0-----0----------|----------------------------|--------0-----------0-------|--------2-----------2-------|----------------------------|--0-----------0-------------|--3-----------2-------------|----------------------------|
-----0----------------------|-----------0---------------||-----------3-----2----------|--3--------------3---------||----------------------------|--------2-----------2-----o||--------2-----------2-------|--0-----------0-----------o||--0-----------0-------------|---------------------------||----------------------------|---------------------------||
--0h-2-----0----------------|--0h-2----------------------|-----------------3----------|----------------------------|--------2-----------2-------|----------------------------|--0-----------0-------------|--0-----0-------------------|----------------------------|--------------4-----2-------|----------------------------|----------------------------|
Chorus ^ v ^ v ^ v ^ v||-------0--0--------0--0----|--------0--0--------0--0----|||-------2--2--------2--2----|--------2--2--------2--2----|||o------2--2--------2--2----|--------2--2--------2--2----|||o------2--2--2-----2--2----|--------2--2--2-----2--2----|||-0-------------------------|--0-------------------------|||---------------------------|----------------------------|
|1, 2.......................
^ v ^ v ^ v ^ v x3--------2--2--------2--2----|--------2--2--------2--2---||--------3--3--------3--3----|--------3--3--------3--3---||--------2--2--------2--2----|--------2--2--------2--2--o||--0-------------------------|--0-----------------------o||--------------0-------------|--------------0------------||----------------------------|---------------------------||
|3.......................... ^ v--------2--2----------------|----------------------------|--------3--3----------------|-----------------3----------|--------2--2----------------|-----------0-----------0----|--0-------------------------|--------0-----------0-------|--------------0-------------|----------------------------|--------------------2-------|--3-----------3-------------|
----------------------------|-----------------------0----|----------------|-----3----------------------|-----------------2----------|----------------|-----------0----------------|-----------2----------------|----------------|--------0-------------------|--------2-----------2-------|----------------|----------------------------|--0-----------0-------------|--0--0--2--4----|--3-----------2-----3-------|----------------------------|----------------|
go to * and play to end-----------2----------------||--0h-2-----0----------------|-----------------3----------||-----------------3----------|--------2-----------2-------||--------2-----------2--0----|--0-----------0-------------||--0-----------0-------------|----------------------------||----------------------------|----------------------------||----------------------------|
----------------------------|----------------------------|-----3--------3-------------|-----3-----------------0----|-----------------------0----|-----------0-----0----------|--------0-----------0-------|--------0-----------0-------|----------------------------|----------------------------|--3-----------3-------------|--3-----------2-------------|
-----------0-----------2----|-----0----------------------|-----2-----------2----------|-----------3-----2----------|----------------------------|----------------------------|--------2-----------2-------|--------2-----------2-------|--0-----------0-------------|--0-----------0-------------|----------------------------|----------------------------|
-----------0----------------|--3--------------3----------|--------2-----------2-------|--0-----------0-------------|----------------------------|----------------------------|
--0h-------2--------------1-------------------------|--2----||--------------------------2-------------------------|--3----||----------------------------------------------------|-------||--0-----------------------0-------------------------|--0----||----------------------------------------------------|-------||----------------------------------------------------|-------||
Please rate this tab:
x1.0