Harry Potter Theme tab with lyrics by John Williams - Easy chords and tabs for guitar

John Williams – Harry Potter Theme tab

Harry Potter

Hey guys. This is the full tab of Harry Potter. I couldn't find a full tab on the 
so I decided to add my own.

Any questions, comments, corrections or if you want the tabs for a second guitar to play 
the background, please email me at bunting16@hotmail.com

Good Luck


Theme 1

|---------0--|--0--3---2--|--0-----7---|--5---------|--2---------||------------|------------|------------|------------|------------||------------|------------|------------|------------|------------||------------|------------|------------|------------|------------||------------|------------|------------|------------|------------||------------|------------|------------|------------|------------|
|---0---3---2---|-----------1---|---------------|---------------||---------------|---3-----------|---------------|---------------||---------------|---------------|---4-----------|---------------||---------------|---------------|---------------|---5-------9---||---------------|---------------|---------------|---------------||---------------|---------------|---------------|---------------|
|----0--3---2---|---0-------7---|---10------9---|---8-------4---||---------------|---------------|---8-----------|---6-----------||--4------------|---------------|---7-----------|---5-----------||---------------|---------------|---------------|---------------||---------------|---------------|---------------|---------------||---------------|---------------|---------------|---------------|
|---8---7---6---|-----------3---|---------------|---------------||---5-----------|---------------|---5-----------|-----------5---||---4-----------|---3-----------|---------------|---4-----------||---------------|---4-----------|---------------|---------------||---------------|---------------|---------------|---------------||---------------|---------------|---------------|---------------|
|--3--7------|--7---------|--8------7--|--6---------|------7--6--||---------8--|---------8--|------------|---------7--|--8---------||------------|------------|------------|------------|------------||------------|------------|------------|------------|------------||------------|------------|------------|------------|------------||------------|------------|------------|------------|------------|
|------------|--7---------|------------|--7---------|--7---------||------------|------------|---------8--|---------8--|---------8--||------------|------------|------------|------------|------------||--8------9--|------------|------------|------------|------------||------------|------------|------------|------------|------------||------------|------------|------------|------------|------------|
|---10------9---|---8-------4---|---8---7---6---|--------3------||---8-----------|---6-----------|---5-----------|------------5--||---7-----------|---5-----------|---4-----------|---3-----------||---------------|---------------|---------------|---4-----------||---------------|---------------|---------------|---------------||---------------|---------------|---------------|---------------|
Theme 2
|------------|------------|--------7---|------------|------------||------------|-----8---7--|------------|--10--------|--7---------||------------|--9---------|--9---------|------------|------------||---------9--|------------|------------|------------|------------||------------|------------|------------|------------|------------||------------|------------|------------|------------|------------|
|---------------|---------------|---------------|---------------||-------8---7---|---------------|---------------|---------------||---9-----------|---8------10---|---------------|---------------||---------------|---------------|---9-----------|---------------||---------------|---------------|---------------|---------------||---------------|---------------|---------------|---------------|
|---------------|-----------7---|---10------9---|---8-------4---||-------8---7---|---------------|---8-----------|---6-----------||----9----------|---9-----------|---7-----------|---5-----------||--9------------|---------------|---------------|---------------||---------------|---------------|---------------|---------------||---------------|---------------|---------------|---------------|
|---8---7---6---|-----------3---|---------------|---------------||---5-----------|---------------|---5-----------|---------------||---4-----------|---3-----------|---------------|---------------||---------------|---4-----------|---------------|---------------||---------------|---------------|---------------|---------------||---------------|---------------|---------------|---------------|
|--3--7------|--7---------|--8------7--|--6---------|------7--6--||---------8--|---------8--|------------|---------7--|--8---------||------------|------------|------------|------------|------------||------------|------------|------------|------------|------------||------------|------------|------------|------------|------------||------------|------------|------------|------------|------------|
|------------|--7---------|------------|--7---------|--7---------||------------|------------|---------8--|---------8--|---------8--||------------|------------|------------|------------|------------||--8------9--|------------|------------|------------|------------||------------|------------|------------|------------|------------||------------|------------|------------|------------|------------|
|---10------9---|---8-------4---|---8---7---6---|--------3------||---8-----------|---6-----------|---5-----------|------------5--||---7-----------|---5-----------|---4-----------|---3-----------||---------------|---------------|---------------|---4-----------||---------------|---------------|---------------|---------------||---------------|---------------|---------------|---------------|
|---------------|---------------|---------------|---------------||---5-----------|---5-----------|---5-----------|---5-----------||---------------|---------------|---------------|---------------||---------------|---------------|---------------|---------------||---------------|---------------|---------------|---------------||---------------|---------------|---------------|---------------|
Outro
|--------------------|--------------------|--------------------||--------------------|--------------------|--------------------||---4-4-4-4-4-4-3-4--|---5---4-3-4---0----|---2---2-1-2--------||---5-5-5-5-5-5-4-5--|---6---5-4-5---2----|---2---2-1-2--------||--------------------|--------------------|---------------3----||--------------------|--------------------|---------------5----|
|--------------------|--------------------|--------------------||--------------------|--------------------|---3----------------||-----------0---3----|---4-4-4-4-4-4-3-4--|---3---5-4-5--------||-------2---2---4----|---5-5-5-5-5-5-4-5--|-------6-5-6---3----||---2---2------------|--------------------|---------------3----||---2----------------|--------------------|--------------------|
|---------------|--------------||-----------------|---------------||--1------------|--------------||-5-5-5-5-5-5-4-5-|--6--5-4-5-----||--1--4-3-4-----|--0-----------||-5-5-5-5-5-5-5-5-|--6--5-4-5-----||-----5-4-5--2--|--2----1------||-----------------|------------5--||------------2--|-------2------||-----------------|------------7--||---------------|--------------||-----------------|---------------|
|--------------------|--------------------|--------------------||---7----7-6-7-------|----------1-4-------|---5-5-5-5-5-5-4-5--||---7----7-6-7-------|--------2-2-4-------|---5-5-5-5-5-5-4-5--||----------------3---|---2----2-----------|--------------------||----------------5---|---3----------------|--------------------||--------------------|--------------------|--------------------|
|--------------------|--------------------|--------------------||---6----6-5-6-------|---6----5-4-5-------|---1----------------||---6----6-5-6---3---|---6----5-4-5---2---|---1----------------||----------------5---|----------------2---|---3-----2--2-0-----||--------------------|--------------------|---------2------3-2-|
Please rate this tab:
x1.0