Jon Darling - Highway 254 tab

Palm muting throughout. This tab is accurate.
http://www.youtube.com/watch?v=6RqPZUlEPNQ
This is the song heard on the castrol commercial.

E|------------------------|------------------------|B|------------------------|------------------------|G|------------------------|------------------------|D|------7----7p5----------|------5-------------7---|A|-------------------7\---|----------------X-------|E|-0----------------------|-3---------5------------|
|------------------------|------------------------||------------------------|------------------------||------------------------|------------------------||------7----7p5----------|-----------5--------4---||-------------------7\---|------X-----------------||-0----------------------|-3-------------2--------|
E|------------------------|------------------------|B|------------------------|------------------------|G|------------------------|------------------------|D|------7----7P5----------|------5------------7----|A|--------------------7/--|---------------X--------|E|-0----------------------|-3---------5------------|
|---------------------|------------------------------||---------------------|------------------------------||---------------------|------------------------------||------5---------5----|------4---5---5---5---5---5---||---------------------|----------5---5---5---5---5---||-3---------3---------|-2--------3---3---3---3---3---|
Rest for 4 Beats This part is more aggressive and has less muting.
|------------------------|---------------------||------------------------|---------------------||------------------------|---------------------||------7----7p5----------|------5---------7----||-------------------7\---|---------------------||-0----------------------|-3---------5---------|
|---------------------|---------------------||------7--7p5---------|------0---------0----||------7--7p5---------|------0---------0----||----------------7~\--|---------------------||---------------------|---------------------||-0-------------------|-3---------2---------|
|------------------------|------------------------||------------------------|------------------------||------------------------|------------------------||------7----7p5----------|------5-------------7---||-------------------7~\--|----------------X-------||-0----------------------|-3---------5------------
|---------------------|---------------------||---------------------|---------------------||---------------------|---------------------||------5~-------5~----|------4~--------4~---||---------------------|---------------------||-3~-------3~---------|-2~---------2~-------|
|------------------------|---------------------------||------------------------|---------------------------||------------------------|---------------------------||------7----7---5--------|-----------5-----------7---||-------------------7----|------X------------X-------||-0----------------------|-3-------------5-----------|
|---------------------||---------------------||---------------------||-2-------------------||-2-------------------||-0-------------------|
Tap to rate this tab
 
# A B C D E F G H I J K L M N O P Q R S T U V W X Y Z