Jordan Pruitt - Miss Popularity tab

------------------------------------------------------------------------------
JoRDaN PRuiTT
Song : Miss Popularity
Album : No Ordinary Girl

VERSION 2 (Sorry for errors on first version)-------------------------------------------------------------------------------|>------------------------------------------------------------------------------|
Tunning : Dropped D - (D-A-D-G-B-E)-------------------------------------------------------------------------------|>> Informations : enjoy... (by xx_xx_my_angel_xx_xx@hotmail.com)------------------------------------------------------------------------------
[a] accentuate - [b] bend - [m] p-mute - [ops] open strings - [h] harmony ------------------------------------------------------------------------------ Intro - 00:00
||-------------------------------------------------------------------|||-------------------------------------------------------------------|||-------------------------------------------------------------------|||---------6-6-4-4--------------------------6-6-4-4------------------|||---6-6-6---------4-4-3-3------------6-6-6---------4-4-3-3----------|||-------------------------6-6-4-4-----------------------------------|
-------------------------------------------------------------------|| -------------------------------------------------------------------|| -------------------------------------------------------------------|| ---------6-6-4-4--------------------------6-6-4-4------------------|| ---6-6-6---------4-4-3-3------------6-6-6---------4-4-3-3----------|| -------------------------6-6-4-4-----------------------------------||
---------------------------------------------------------------------- Fill 1 - 00:20 | Soflty
||-------------------------------------------------------------------|||---9-----------9----------9----------------------------------------|||--------11----------11---------11----9-----8---9-----8-------------|||-----13----13----13----13---13----(9)---(9)-----(9)----9^10--------|||---------------------------------------------7-----7---------------|||-------------------------------------------------------------------|
-------------------------------------------------------------------| ---9-----------9----------9----------------------------------------| --------11----------11---------11----9-----8---9-----8-------------| -----13----13----13----13---13----(9)---(9)-----(9)----9^10--------| ---------------------------------------------7-----7---------------| -------------------------------------------------------------------|
Fill 1-B (00:39) | Solfty
||--------------------------------------------|||--------7------9-7---7------9------9-7------|||------9------9-----9------8---8-------------|||---11-----11-----------10-------10----------|||--------------------------------------------|||--------------------------------------------|
--------------------------------------------|| --------7------9-7-------7-----7-------7----|| ------9------9-----9---9-----9---9---9------|| ---11-----11---------9-----9-------9--------|| --------------------------------------------|| --------------------------------------------||
---------------------------------------------------------------------- Fill 2 - 00:49
[a]||-------------------------------------------------------|||-------------------------------------------------------|||-----------------------------4--4--4-------------------|||---6--6--6---2--2--2--2--2---4--4--4---4--4--4--4--4---|||---6--6--6---2--2--2--2--2---2--2--2---4--4--4--4--4---|||---6--6--6---2--2--2--2--2-------------4--4--4--4--4---|
-------------------------------------------------------| -------------------------------------------------------| -----------------------------4--4--4-------------------| ---6--6--6---2--2--2--2--2---4--4--4---4--4--4--4--4---| ---6--6--6---2--2--2--2--2---2--2--2---4--4--4--4--4---| ---6--6--6---2--2--2--2--2-------------4--4--4--4--4---|
-------------------------------------------------------| -------------------------------------------------------| -----------------------------4--4--4-------------------| ---6--6--6---2--2--2--2--2---4--4--4---4--4--4--4--4---| ---6--6--6---2--2--2--2--2---2--2--2---4--4--4--4--4---| ---6--6--6---2--2--2--2--2-------------4--4--4--4--4---|
-------------------------------------------------------|| -------------------------------------------------------|| ---4--4--4--4--4--4--4--4--4--4--4--4--4--4--4---------|| ---4--4--4--4--4--4--4--4--2--2--2--2--2--2--2---------|| ---2--2--2--2--2--2--2--2--2--2--2--2--2--2--2---------|| ---2--2--2--2--2--2--2--2--2--2--2--2--2--2--2---------||
---------------------------------------------------------------------- Fill 3 - 01:10
||-------------------------------------------------------------------||||-------------------------------------------------------------------||||-------------------------------------------------------------------||||---------6-6-4-4--------------------------6-6-4-4------------------||||---6-6-6---------4-4-3-3------------6-6-6---------4-4-3-3----------||||-------------------------6-6-4-4-----------------------------------||
---------------------------------------------------------------------- Fill 4 - 01:20 | Solfty
||-------------------------------------------------------------------|||---9-----------9----------9----------------------------------------|||--------11----------11---------11----9-----8---9-----8-------------|||-----13----13----13----13---13----(9)---(9)-----(9)----9^10--------|||---------------------------------------------7-----7---------------|||-------------------------------------------------------------------|
-------------------------------------------------------------------| ---9-----------9----------9----------------------------------------| --------11----------11---------11----9-----8---9-----8-------------| -----13----13----13----13---13----(9)---(9)-----(9)----9^10--------| ---------------------------------------------7-----7---------------| -------------------------------------------------------------------|
Fill 4-B (01:39) | Soflty
||--------------------------------------------|||--------7------9-7---7------9------9-7------|||------9------9-----9------8---8-------------|||---11-----11-----------10-------10----------|||--------------------------------------------|||--------------------------------------------|
--------------------------------------------|| --------7------9-7-------7-----7-------7----|| ------9------9-----9---9-----9---9---9------|| ---11-----11---------9-----9-------9--------|| --------------------------------------------|| --------------------------------------------||
---------------------------------------------------------------------- Fill 5 - 01:51
[a]||-------------------------------------------------------|||-------------------------------------------------------|||-----------------------------4--4--4-------------------|||---6--6--6---2--2--2--2--2---4--4--4---4--4--4--4--4---|||---6--6--6---2--2--2--2--2---2--2--2---4--4--4--4--4---|||---6--6--6---2--2--2--2--2-------------4--4--4--4--4---|
-------------------------------------------------------| -------------------------------------------------------| -----------------------------4--4--4-------------------| ---6--6--6---2--2--2--2--2---4--4--4---4--4--4--4--4---| ---6--6--6---2--2--2--2--2---2--2--2---4--4--4--4--4---| ---6--6--6---2--2--2--2--2-------------4--4--4--4--4---|
-------------------------------------------------------| -------------------------------------------------------| -----------------------------4--4--4-------------------| ---6--6--6---2--2--2--2--2---4--4--4---4--4--4--4--4---| ---6--6--6---2--2--2--2--2---2--2--2---4--4--4--4--4---| ---6--6--6---2--2--2--2--2-------------4--4--4--4--4---|
-------------------------------------------------------|| ---4--4--4--4--4--4--4--4------------------------------|| ---4--4--4--4--4--4--4--4--4--4--4--4--4--4--4---------|| ---4--4--4--4--4--4--4--4--2--2--2--2--2--2--2---------|| ---2--2--2--2--2--2--2--2--2--2--2--2--2--2--2---------|| ---2--2--2--2--2--2--2--2--2--2--2--2--2--2--2---------||
[a]||-------------------------------------------------------|||-------------------------------------------------------|||-----------------------------4--4--4-------------------|||---6--6--6---2--2--2--2--2---4--4--4---4--4--4--4--4---|||---6--6--6---2--2--2--2--2---2--2--2---4--4--4--4--4---|||---6--6--6---2--2--2--2--2-------------4--4--4--4--4---|
-------------------------------------------------------| -------------------------------------------------------| -----------------------------4--4--4-------------------| ---6--6--6---2--2--2--2--2---4--4--4---4--4--4--4--4---| ---6--6--6---2--2--2--2--2---2--2--2---4--4--4--4--4---| ---6--6--6---2--2--2--2--2-------------4--4--4--4--4---|
-------------------------------------------------------| -------------------------------------------------------| -----------------------------4--4--4-------------------| ---6--6--6---2--2--2--2--2---4--4--4---4--4--4--4--4---| ---6--6--6---2--2--2--2--2---2--2--2---4--4--4--4--4---| ---6--6--6---2--2--2--2--2-------------4--4--4--4--4---|
-------------------------------------------------------|| ---4--4--4--4--4--4--4--4------------------------------|| ---4--4--4--4--4--4--4--4--4--4--4--4--4--4--4---------|| ---4--4--4--4--4--4--4--4--2--2--2--2--2--2--2---------|| ---2--2--2--2--2--2--2--2--2--2--2--2--2--2--2---------|| ---2--2--2--2--2--2--2--2--2--2--2--2--2--2--2---------||
---------------------------------------------------------------------- Fill 6 - 02:30
||-----------------------------------------------------|||-----------------------------------------------------|||-----------------------------------------------------|||---1--1--1--1--1--1--1--1--6--6--6--6--6--6--6--6----|||---1--1--1--1--1--1--1--1--6--6--6--6--6--6--6--6----|||---1--1--1--1--1--1--1--1--6--6--6--6--6--6--6--6----|
-----------------------------------------------------| -----------------------------------------------------| -----------------------------------------------------| ---1--1--1--1--1--1--1--1--6--6--6--6--6--6--6--6----| ---1--1--1--1--1--1--1--1--6--6--6--6--6--6--6--6----| ---1--1--1--1--1--1--1--1--6--6--6--6--6--6--6--6----|
-----------------------------------------------------| -----------------------------------------------------| -----------------------------------------------------| ---1--1--1--1--1--1--1--1--6--6--6--6--6--6--6--6----| ---1--1--1--1--1--1--1--1--6--6--6--6--6--6--6--6----| ---1--1--1--1--1--1--1--1--6--6--6--6--6--6--6--6----|
-----------------------------------------------------|| -----------------------------------------------------|| -----------------------------------------------------|| ---2--2--2--2--2--2--2--2--1-[ops]-------------------|| ---2--2--2--2--2--2--2--2--1-[ops]-------------------|| ---2--2--2--2--2--2--2--2--1-[ops]-------------------||
---------------------------------------------------------------------- Fill 7 - 2:48
[a]||-------------------------------------------------------|||-------------------------------------------------------|||-----------------------------4--4--4-------------------|||---6--6--6---2--2--2--2--2---4--4--4---4--4--4--4--4---|||---6--6--6---2--2--2--2--2---2--2--2---4--4--4--4--4---|||---6--6--6---2--2--2--2--2-------------4--4--4--4--4---|
-------------------------------------------------------| -------------------------------------------------------| -----------------------------4--4--4-------------------| ---6--6--6---2--2--2--2--2---4--4--4---4--4--4--4--4---| ---6--6--6---2--2--2--2--2---2--2--2---4--4--4--4--4---| ---6--6--6---2--2--2--2--2-------------4--4--4--4--4---|
(Fill 7-B)-Lead Guitar (02:58)
-------------------------------------------------------| -------------------------------------------------------| -----------------------------4--4--4-------------------| ---6--6--6---2--2--2--2--2---4--4--4---4--4--4--4--4---| ---6--6--6---2--2--2--2--2---2--2--2---4--4--4--4--4---| ---6--6--6---2--2--2--2--2-------------4--4--4--4--4---|
-------------------------------------------------------|| ---4--4--4--4--4--4--4--4------------------------------|| ---4--4--4--4--4--4--4--4--4--4--4--4--4--4--4---------|| ---4--4--4--4--4--4--4--4--2--2--2--2--2--2--2---------|| ---2--2--2--2--2--2--2--2--2--2--2--2--2--2--2---------|| ---2--2--2--2--2--2--2--2--2--2--2--2--2--2--2---------||
[a]||-------------------------------------------------------|||-------------------------------------------------------|||-----------------------------4--4--4-------------------|||---6--6--6---2--2--2--2--2---4--4--4---4--4--4--4--4---|||---6--6--6---2--2--2--2--2---2--2--2---4--4--4--4--4---|||---6--6--6---2--2--2--2--2-------------4--4--4--4--4---|
-------------------------------------------------------| -------------------------------------------------------| -----------------------------4--4--4-------------------| ---6--6--6---2--2--2--2--2---4--4--4---4--4--4--4--4---| ---6--6--6---2--2--2--2--2---2--2--2---4--4--4--4--4---| ---6--6--6---2--2--2--2--2-------------4--4--4--4--4---|
-------------------------------------------------------| -------------------------------------------------------| -----------------------------4--4--4-------------------| ---6--6--6---2--2--2--2--2---4--4--4---4--4--4--4--4---| ---6--6--6---2--2--2--2--2---2--2--2---4--4--4--4--4---| ---6--6--6---2--2--2--2--2-------------4--4--4--4--4---|
-------------------------------------------------------|| ---4--4--4--4--4--4--4--4------------------------------|| ---4--4--4--4--4--4--4--4--4--4--4--4--4--4--4---------|| ---4--4--4--4--4--4--4--4--2--2--2--2--2--2--2---------|| ---2--2--2--2--2--2--2--2--2--2--2--2--2--2--2---------|| ---2--2--2--2--2--2--2--2--2--2--2--2--2--2--2---------||
and fill repeat... ---------------------------------------------------------------------- Fill 7-B Guitar Ending Track (02:58) ^ Legato ~ Sustain
||---11^9------------------------------------16~~---|||-------12-11^12----------14----16~~-^17^19--------|||----------------11~~--13^---13^-------------------|||--------------------------------------------------|||--------------------------------------------------|||--------------------------------------------------|
Fill 7-2
||------14---------------14^16~~~~---14-----------------------14^16~~---||||---16----16---------16----------16----16-----------16----17^----------||||------------13~~--------------------------16~~--16^---16^-------------||||----------------------------------------------------------------------||||----------------------------------------------------------------------||||----------------------------------------------------------------------||
and FILL 7-2 repeat... ---------------------------------------------------------------------- END. VERSION 2 REWRITTED 29/01/2007 NOTE : J-Pruitt I LOVE YOU ! lol ;)
Tap to rate this tab
 
# A B C D E F G H I J K L M N O P Q R S T U V W X Y Z