Jordan Pruitt - My Reality tab

------------------------------------------------------------------------------JoRDaN PRuiTTSong : My RealityAlbum : No Ordinary Girl-------------------------------------------------------------------------------|>------------------------------------------------------------------------------| Tunning
Dropped D - (D-A-D-G-B-E)-------------------------------------------------------------------------------|>> Informations : enjoy... (by xx_xx_my_angel_xx_xx@hotmail.com)------------------------------------------------------------------------------
[a] accentuate - [b] bend - [m] p-mute - [ops] open strings - [h] harmony [~] sustain [x] block [^] legato ------------------------------------------------------------------------------ Intro - 00:00
[a][\] [a][\] [a][\]||---2--2------2--2------2--2----------||||---3--3------3--3------3--3------7---||||---4--4------4--4------4--4------6---||||---4--4------4--4------4--4------4---||||---2--x------2--x------2--x------4---||||---------------------------------4---||
---------------------------------------------------------------------- Fill 1 - 00:11
[a][\] [a][\] [a][\]||---2--2------2--2------2--2----------|||---3--3------3--3------3--3------7---|||---4--4------4--4------4--4------6---|||---4--4------4--4------4--4------4---|||---2--x------2--x------2--x------4---|||---------------------------------4---|
[a][\] [a][\] [a][\] ---2--2---------2--2---------2--2-------------|| ---3--3---------3--3---------3--3---------7---|| ---4--4---------4--4---------4--4---------6---|| ---4--4---5^4---4--4---5^4---4--4---5^4---4---|| ---2--x---------2--x---------2--x---------4---|| ------------------------------------------4---||
---------------------------------------------------------------------- Fill 2 - 00:33 (Bridge)
||---7-------------------------------|||---8-----------8-----------7-------|||---9-----------7-----------6-------|||---9-----------5-----------4-------|||---7-----------5-----------4-------|||---------------5-----------4-------|
[crs]................. ----------------------------|| ----------------------------|| ----------------------------|| ---4--4--4--4--4--4--4--4---|| ---4--4--4--4--4--4--4--4---|| ---4--4--4--4--4--4--4--4---||
---------------------------------------------------------------------- Fill 3 - 00:43 Track A - Guitar A
[a] [a] [a] [a] [a] [a] [a] [a]||---4----4--4----------------------------------------------|||---3----3--3-----5----5--5-----9----9--9-----10---10-10---|||---4----4--4-----4----4--4-----7----7--7-----9----9--7----|||---4----4--4-----2----2--2-----5----5--5-----7----7--7----|||---2----2--2-----2----2--2-----5----5--5-----7----7--7----|||-----------------2----2--2-----5----5--5-----7----7--7----|
[a] [a] [a] -[a]- [a] [a] ---2----2-----2-----------------------------------| ---3----3-----3-----------------------------------| ---4----4-----4----4-4-4-----7---7----6---6---6---| ---2----2-----2----2-2-2-----5---5----4---4---4---| ---2----2-----2----2-2-2-----5---5----4---4---4---| ---2----2-----2----2-2-2-----5---5----4---4---4---|
[a] [a] [a] [a] [a] [a] [a] [a] ---4----4--4----------------------------------------------| ---3----3--3-----5----5--5-----9----9--9-----10---10-10---| ---4----4--4-----4----4--4-----7----7--7-----9----9--7----| ---4----4--4-----2----2--2-----5----5--5-----7----7--7----| ---2----2--2-----2----2--2-----5----5--5-----7----7--7----| -----------------2----2--2-----5----5--5-----7----7--7----|
[a] [a] [a] -[a]- [a] [a] ---2----2-----2----------------------------|| ---3----3-----3----------------------------|| ---4----4-----4----4-4-4-----7---7----6----|| ---2----2-----2----2-2-2-----5---5----4----|| ---2----2-----2----2-2-2-----5---5----4----|| ---2----2-----2----2-2-2-----5---5----4----||
Track B - Guitar B (Softly)
||-------------------------------------------------|||-------3----------5------------------------------|||-------------------------------7---------9-------|||-----4----4---------4^6------5---9-----7---11----|||---2--------(2)----------------------------------|||----------------2----------5---------7-----------|
-------------------------------------------------| ------8-7-------------3--------------------------| ----------9---------4----4----------6-3-4-6------| ---9--------9-----5------------4-----------------| -------------------------------------------------| -------------------------------------------------|
-------------------------------------------------| -------3----------5------------------------------| -------------------------------7---------9-------| -----4----4---------4^6------5---9-----7---11----| ---2--------(2)----------------------------------| ----------------2----------5---------7-----------|
-------------------------------------------------|| ------8-7-------------3-------------2------------|| ----------9---------4----4-------3---------------|| ---9--------9-----5-----------4------------------|| -------------------------------------------------|| -------------------------------------------------||
---------------------------------------------------------------------- Fill 4 - 01:05
[a][\] [a][\]||---2--2------2--2---------|||---3--3------3--3---------|||---4--4------4--4---------|||---4--4------4--4---5^4---|||---2--x------2--x---------|||--------------------------|
[a][\] [a][\] ---2--2---------2--2--------------| ---3--3---------3--3----------7---| ---4--4---------4--4----------6---| ---4--4---5^4---4--4---5^4----4---| ---2--x---------2--x----------4---| ------------------------------4---|
[a][\] [a][\] ---2--2---------2--2----------| ---3--3---------3--3----------| ---4--4---------4--4----------| ---4--4---5^4---4--4---5^4----| ---2--x---------2--x----------| ------------------------------|
[a][\] [a][\] ---2--2---------2--2--------------|| ---3--3---------3--3----------7---|| ---4--4---------4--4----------6---|| ---4--4---5^4---4--4---5^4----4---|| ---2--x---------2--x----------4---|| ------------------------------4---||
---------------------------------------------------------------------- Fill 5 - 01:29
||---7-------------------------------|||---8-----------8-----------7-------|||---9-----------7-----------6-------|||---9-----------5-----------4-------|||---7-----------5-----------4-------|||---------------5-----------4-------|
[crs]................. ----------------------------|| ----------------------------|| ----------------------------|| ---4--4--4--4--4--4--4--4---|| ---4--4--4--4--4--4--4--4---|| ---4--4--4--4--4--4--4--4---||
---------------------------------------------------------------------- Fill 6 - 01:38 Track A - Guitar A
[a] [a] [a] [a] [a] [a] [a] [a]||---4----4--4----------------------------------------------|||---3----3--3-----5----5--5-----9----9--9-----10---10-10---|||---4----4--4-----4----4--4-----7----7--7-----9----9--7----|||---4----4--4-----2----2--2-----5----5--5-----7----7--7----|||---2----2--2-----2----2--2-----5----5--5-----7----7--7----|||-----------------2----2--2-----5----5--5-----7----7--7----|
[a] [a] [a] -[a]- [a] [a] ---2----2-----2-----------------------------------| ---3----3-----3-----------------------------------| ---4----4-----4----4-4-4-----7---7----6---6---6---| ---2----2-----2----2-2-2-----5---5----4---4---4---| ---2----2-----2----2-2-2-----5---5----4---4---4---| ---2----2-----2----2-2-2-----5---5----4---4---4---|
[a] [a] [a] [a] [a] [a] [a] [a] ---4----4--4----------------------------------------------| ---3----3--3-----5----5--5-----9----9--9-----10---10-10---| ---4----4--4-----4----4--4-----7----7--7-----9----9--7----| ---4----4--4-----2----2--2-----5----5--5-----7----7--7----| ---2----2--2-----2----2--2-----5----5--5-----7----7--7----| -----------------2----2--2-----5----5--5-----7----7--7----|
[a] [a] [a] -[a]- [a] [a] ---2----2-----2----------------------------|| ---3----3-----3----------------------------|| ---4----4-----4----4-4-4-----7---7----6----|| ---2----2-----2----2-2-2-----5---5----4----|| ---2----2-----2----2-2-2-----5---5----4----|| ---2----2-----2----2-2-2-----5---5----4----||
[a] [a] [a] [a] [a] [a] [a] [a]||---4----4--4----------------------------------------------|||---3----3--3-----5----5--5-----9----9--9-----10---10-10---|||---4----4--4-----4----4--4-----7----7--7-----9----9--7----|||---4----4--4-----2----2--2-----5----5--5-----7----7--7----|||---2----2--2-----2----2--2-----5----5--5-----7----7--7----|||-----------------2----2--2-----5----5--5-----7----7--7----|
[a] [a] [a] -[a]- [a] [a] ---2----2-----2-----------------------------------| ---3----3-----3-----------------------------------| ---4----4-----4----4-4-4-----7---7----6---6---6---| ---2----2-----2----2-2-2-----5---5----4---4---4---| ---2----2-----2----2-2-2-----5---5----4---4---4---| ---2----2-----2----2-2-2-----5---5----4---4---4---|
[a] [a] [a] [a] [a] [a] [a] [a] ---4----4--4----------------------------------------------| ---3----3--3-----5----5--5-----9----9--9-----10---10-10---| ---4----4--4-----4----4--4-----7----7--7-----9----9--7----| ---4----4--4-----2----2--2-----5----5--5-----7----7--7----| ---2----2--2-----2----2--2-----5----5--5-----7----7--7----| -----------------2----2--2-----5----5--5-----7----7--7----|
[a] [a] [a] -[a]- [a] [a] ---2----2-----2----------------------------|| ---3----3-----3----------------------------|| ---4----4-----4----4-4-4-----7---7----6----|| ---2----2-----2----2-2-2-----5---5----4----|| ---2----2-----2----2-2-2-----5---5----4----|| ---2----2-----2----2-2-2-----5---5----4----||
Track B - Guitar B (Softly)
||-------------------------------------------------|||-------3----------5------------------------------|||-------------------------------7---------9-------|||-----4----4---------4^6------5---9-----7---11----|||---2--------(2)----------------------------------|||----------------2----------5---------7-----------|
-------------------------------------------------| ------8-7-------------3--------------------------| ----------9---------4----4----------6-3-4-6------| ---9--------9-----5------------4-----------------| -------------------------------------------------| -------------------------------------------------|
-------------------------------------------------| -------3----------5------------------------------| -------------------------------7---------9-------| -----4----4---------4^6------5---9-----7---11----| ---2--------(2)----------------------------------| ----------------2----------5---------7-----------|
-------------------------------------------------|| ------8-7-------------3-------------2------------|| ----------9---------4----4-------3---------------|| ---9--------9-----5-----------4------------------|| -------------------------------------------------|| -------------------------------------------------||
||-------------------------------------------------|||-------3----------5------------------------------|||-------------------------------7---------9-------|||-----4----4---------4^6------5---9-----7---11----|||---2--------(2)----------------------------------|||----------------2----------5---------7-----------|
-------------------------------------------------| ------8-7-------------3--------------------------| ----------9---------4----4----------6-3-4-6------| ---9--------9-----5------------4-----------------| -------------------------------------------------| -------------------------------------------------|
-------------------------------------------------| -------3----------5------------------------------| -------------------------------7---------9-------| -----4----4---------4^6------5---9-----7---11----| ---2--------(2)----------------------------------| ----------------2----------5---------7-----------|
-------------------------------------------------|| ------8-7-------------3-------------2------------|| ----------9---------4----4-------3---------------|| ---9--------9-----5-----------4------------------|| -------------------------------------------------|| -------------------------------------------------||
---------------------------------------------------------------------- Fill 7 - (Bridge B) - 02:21 Track A - Guitar A (Softly)
||-----------------------------------------------------|||--------------3----2------------------3----2---------|||---4-[~]------4----3-------4-[~]------4----3---------|||---2-[~]------5----4-------2-[~]------5----4---------|||-----------------------------------------------------|||-----------------------------------------------------|
Track B - Guitar B (Softly)
||---------2---2---2---2--------------------2---2---2---2---------------|||---3-3-3---3---3---3----------------3-3-3---3---3---3-----------------|||------------------------4[~]--3[b]-----------------------4[~]--3[b]---|||----------------------------------------------------------------------|||----------------------------------------------------------------------|||----------------------------------------------------------------------|
Guitar A and B - (02:31) [a] ----[a]--- ---[a]-------------| ------------------------------------------------------------| ------------------------------------------------------------| --4-4-4-----------------------------------------------------| --4-4-4--0--0-2--2-2-2--4-5--5-5-5--5-5--8-8-8-8-8-[~]------| --2-2-2--0--0-2--2-2-2--4-5--5-5-5--5-5--4-4-4-4-4-[~]------| ---------0--0-2--2-2-2--4-5--5-5-5--5-5--4-4-4-4-4-[~]------|
---------------------------------------------------------------------- Fill 8 - 02:42 Track A - Guitar A
[a] [a] [a] [a] [a] [a] [a] [a]||---4----4--4----------------------------------------------|||---3----3--3-----5----5--5-----9----9--9-----10---10-10---|||---4----4--4-----4----4--4-----7----7--7-----9----9--7----|||---4----4--4-----2----2--2-----5----5--5-----7----7--7----|||---2----2--2-----2----2--2-----5----5--5-----7----7--7----|||-----------------2----2--2-----5----5--5-----7----7--7----|
[a] [a] [a] -[a]- [a] [a] ---2----2-----2-----------------------------------| ---3----3-----3-----------------------------------| ---4----4-----4----4-4-4-----7---7----6---6---6---| ---2----2-----2----2-2-2-----5---5----4---4---4---| ---2----2-----2----2-2-2-----5---5----4---4---4---| ---2----2-----2----2-2-2-----5---5----4---4---4---|
[a] [a] [a] [a] [a] [a] [a] [a] ---4----4--4----------------------------------------------| ---3----3--3-----5----5--5-----9----9--9-----10---10-10---| ---4----4--4-----4----4--4-----7----7--7-----9----9--7----| ---4----4--4-----2----2--2-----5----5--5-----7----7--7----| ---2----2--2-----2----2--2-----5----5--5-----7----7--7----| -----------------2----2--2-----5----5--5-----7----7--7----|
[a] [a] [a] -[a]- [a] [a] ---2----2-----2----------------------------|| ---3----3-----3----------------------------|| ---4----4-----4----4-4-4-----7---7----6----|| ---2----2-----2----2-2-2-----5---5----4----|| ---2----2-----2----2-2-2-----5---5----4----|| ---2----2-----2----2-2-2-----5---5----4----||
[a] [a] [a] [a] [a] [a] [a] [a]||---4----4--4----------------------------------------------|||---3----3--3-----5----5--5-----9----9--9-----10---10-10---|||---4----4--4-----4----4--4-----7----7--7-----9----9--7----|||---4----4--4-----2----2--2-----5----5--5-----7----7--7----|||---2----2--2-----2----2--2-----5----5--5-----7----7--7----|||-----------------2----2--2-----5----5--5-----7----7--7----|
[a] [a] [a] -[a]- [a] [a] ---2----2-----2-----------------------------------| ---3----3-----3-----------------------------------| ---4----4-----4----4-4-4-----7---7----6---6---6---| ---2----2-----2----2-2-2-----5---5----4---4---4---| ---2----2-----2----2-2-2-----5---5----4---4---4---| ---2----2-----2----2-2-2-----5---5----4---4---4---|
[a] [a] [a] [a] [a] [a] [a] [a] ---4----4--4----------------------------------------------| ---3----3--3-----5----5--5-----9----9--9-----10---10-10---| ---4----4--4-----4----4--4-----7----7--7-----9----9--7----| ---4----4--4-----2----2--2-----5----5--5-----7----7--7----| ---2----2--2-----2----2--2-----5----5--5-----7----7--7----| -----------------2----2--2-----5----5--5-----7----7--7----|
[a] [a] [a] -[a]- [a] [a] ---2----2-----2----------------------------|| ---3----3-----3----------------8-----7-----|| ---4----4-----4----4-4-4-------7-----6-----|| ---2----2-----2----2-2-2-------5-----4-----|| ---2----2-----2----2-2-2-------5-----4-----|| ---2----2-----2----2-2-2-------5-----4-----|| END.
Track B - Guitar B (Softly)
||-------------------------------------------------|||-------3----------5------------------------------|||-------------------------------7---------9-------|||-----4----4---------4^6------5---9-----7---11----|||---2--------(2)----------------------------------|||----------------2----------5---------7-----------|
-------------------------------------------------| ------8-7-------------3--------------------------| ----------9---------4----4----------6-3-4-6------| ---9--------9-----5------------4-----------------| -------------------------------------------------| -------------------------------------------------|
-------------------------------------------------| -------3----------5------------------------------| -------------------------------7---------9-------| -----4----4---------4^6------5---9-----7---11----| ---2--------(2)----------------------------------| ----------------2----------5---------7-----------|
-------------------------------------------------|| ------8-7-------------3-------------2------------|| ----------9---------4----4-------3---------------|| ---9--------9-----5-----------4------------------|| -------------------------------------------------|| -------------------------------------------------||
||-------------------------------------------------|||-------3----------5------------------------------|||-------------------------------7---------9-------|||-----4----4---------4^6------5---9-----7---11----|||---2--------(2)----------------------------------|||----------------2----------5---------7-----------|
-------------------------------------------------| ------8-7-------------3--------------------------| ----------9---------4----4----------6-3-4-6------| ---9--------9-----5------------4-----------------| -------------------------------------------------| -------------------------------------------------|
-------------------------------------------------| -------3----------5------------------------------| -------------------------------7---------9-------| -----4----4---------4^6------5---9-----7---11----| ---2--------(2)----------------------------------| ----------------2----------5---------7-----------|
-------------------------------------------------|| ------8-7---------------3------------8-----------|| ----------9-------------4------------7-----------|| ---9--------9-----------5------------4-----------|| -------------------------------------4-----------|| -------------------------------------4-----------|| END.
---------------------------------------------------------------------- END. WRITTED : 30/01/2007 Keith ! Do you have some work for me today ?
Tap to rate this tab
 
# A B C D E F G H I J K L M N O P Q R S T U V W X Y Z