Jose Gonzalez - Deadweight On Velventeen tab

Jose Gonzalez - Deadweight on Velventeen - Veneer
Tabbed By Dan Benton-Smith
email - dan.benton-smith@southessex-trust.nhs.uk
Tuning low to high D A D F# B e
Capo on 1st fret
This tab should be 100%, if you find any mistakes please email me. Enjoy!

----------------------------------------------------------|----------------------------------------------------------|----------------------------------------------------------|--11---11---11---11---11---11---11---11-------------------|9----9----9----9----9----9----9----9----------------------|----------------------------------------------------------|x4
--0--------------0----------------------------------------|--0-------0------0-------0--------------------------------|----------0--------------0-------0------------------------|--11---11---11---11---11---11---11---11-------------------|9----9----9----9----9----9----9----9----------------------|----------------------------------------------------------|
--0--------------0----------------------------------------|--0-------0------0-------0--------------------------------|----------0--------------0-------0------------------------|--11---11---11---11---11---11---11---11-------------------|9----9----9----9----9----9----9----9----------------------|----------------------------------------------------------|
--0--------------0----------------------------------------|--0-------0------0-------0--------------------------------|----------0--------------0-------0------------------------|--11---11---11---11---11---11---11---11-------------------|9----9----9----9----9----9----9----9----------------------|----------------------------------------------------------|
--0--------------0----0-----------------------------------|--0-------0------0----0------------0----------------------|----------0-----------------0------0----------------------|--11---11---11---11---11---11---11---11-------------------|9----9----9----9----9----9----9----9----------------------|----------------------------------------------------------|
----------------------------------------------------------|----------------------------------------------------------|----------------------------------------------------------|--11---11---11---11---11---11---11---11-------------------|9----9----9----9----9----9----9----9----------------------|----------------------------------------------------------|x4
---------------------------------------------------------|-----0---------0---------0---------0---------------------|-----0---------0---------0---------0---------------------|--11---11---11---11---11---11---11---11------------------|-----9----9----0---------9----9----9---------------------|0-------------------9------------------------------------|
----------------------------------------------------------|-----0----------------------------------------------------|-----0----------------------------------------------------|--11---11---11---11---11---11---11---11-------------------|9----9----9----9----9----9----9----9----------------------|----------------------------------------------------------|x4
--0--------------0----------------------------------------|--0-------0------0-------0--------------------------------|----------0--------------0-------0------------------------|--11---11---11---11---11---11---11---11-------------------|9----9----9----9----9----9----9----9----------------------|----------------------------------------------------------|
--0--------------0----------------------------------------|--0-------0------0-------0--------------------------------|----------0--------------0-------0------------------------|--11---11---11---11---11---11---11---11-------------------|9----9----9----9----9----9----9----9----------------------|----------------------------------------------------------|
--0--------------0----------------------------------------|--0-------0------0-------0--------------------------------|----------0--------------0-------0------------------------|--11---11---11---11---11---11---11---11-------------------|9----9----9----9----9----9----9----9----------------------|----------------------------------------------------------|
--0--------------0----0-----------------------------------|--0-------0------0----0------------0----------------------|----------0-----------------0------0----------------------|--11---11---11---11---11---11---11---11-------------------|9----9----9----9----9----9----9----9----------------------|----------------------------------------------------------|
------------------------------------------------------------|---------------0--------------------------------------------|---------------0--------------------------------------------|--11---11---11---11---11---11---11---11---------------------|9----9----9----9----9----9----9----9------------------------|------------------------------------------------------------|x4
---------------------------------------------------------|-----0---------0---------0---------0---------------------|-----0---------0---------0---------0---------------------|--11---11---11---11---11---11---11---11------------------|-----9----9----0---------9----9----9---------------------|0-------------------9------------------------------------|
----------------------------------------------------------|-----0----------------------------------------------------|-----0----------------------------------------------------|--11---11---11---11---11---11---11---11-------------------|9----9----9----9----9----9----9----9----------------------|----------------------------------------------------------|
---------------------------------------------------------|-----0---------0---------0---------0---------------------|-----0---------0---------0---------0---------------------|--11---11---11---11---11---11---11---11------------------|-----9----9----0---------9----9----9---------------------|0-------------------9------------------------------------|
----------------------------------------------------------|-----0----------------------------------------------------|-----0----------------------------------------------------|--11---11---11---11---11---11---11---11-------------------|9----9----9----9----9----9----9----9----------------------|----------------------------------------------------------|
---------------------------------------------------------|-----0---------0---------0---------0---------------------|-----0---------0---------0---------0---------------------|--11---11---11---11---11---11---11---11------------------|-----9----9----0---------9----9----9---------------------|0-------------------9------------------------------------|
----------------------------------------------------------|-----0---------0---------0---------0----------------------|-----0---------0---------0---------0----------------------|--11---11---11---11---11---11---11---11-------------------|9----9----9----9----9----9----9----9----------------------|----------------------------------------------------------|
---------------------------------------------------------|-----0---------0---------0---------0---------------------|-----0---------0---------0---------0---------------------|--11---11---11---11---11---11---11---11------------------|-----9----9----0---------9----9----9---------------------|0-------------------9------------------------------------|
----------------------------------------------------------|-----0---------0---------0---------0----------------------|-----0---------0---------0---------0----------------------|--11---11---11---11---11---11---11---11-------------------|9----9----9----9----9----9----9----9----------------------|----------------------------------------------------------|
---------------------------------------------------------|-----0---------0---------0---------0---------------------|-----0---------0---------0---------0---------------------|--11---11---11---11---11---11---11---11------------------|-----9----9----0---------9----9----9---------------------|0-------------------9------------------------------------|
----------------------------------------------------------|-----0----------------------------------------------------|-----0----------------------------------------------------|--11---11---11---11---11---11---11---11-------------------|9----9----9----9----9----9----9----9----------------------|----------------------------------------------------------|
----------------------------------------------------------|-------------------------0--------------------------------|-------------------------0--------------------------------|--11---11---11---11---11---11---11---11-------------------|9----9----9----9----9----9----9----9----------------------|----------------------------------------------------------|
----------------------------------------------------------|-------------------------0--------------------------------|-------------------------0--------------------------------|--11---11---11---11---11---11---11---11-------------------|9----9----9----9----9----9----9----9----------------------|----------------------------------------------------------|
--0--------------0----------------------------------------|--0-------0------0-------0--------------------------------|----------0--------------0-------0------------------------|--11---11---11---11---11---11---11---11-------------------|9----9----9----9----9----9----9----9----------------------|----------------------------------------------------------|
--0--------------0----------------------------------------|--0-------0------0-------0--------------------------------|----------0--------------0-------0------------------------|--11---11---11---11---11---11---11---11-------------------|9----9----9----9----9----9----9----9----------------------|----------------------------------------------------------|
--0--------------0----------------------------------------|--0-------0------0-------0--------------------------------|----------0--------------0-------0------------------------|--11---11---11---11---11---11---11---11-------------------|9----9----9----9----9----9----9----9----------------------|----------------------------------------------------------|
--0--------------0----0-----------------------------------|--0-------0------0----0-----------------------------------|----------0-----------------0-----------------------------|--11---11---11---11---11---11-----------------------------|9----9----9----9----9----9--------------------------------|----------------------------------------------------------|
Tap to rate this tab
 
# A B C D E F G H I J K L M N O P Q R S T U V W X Y Z