Jose Gonzalez - The Nest tab

The Nest - Josť Gonzalez           

                                    
D||---------0------------0-----------0-----------0-----|A||-----------0------------0-----------0-----------0---|D||-------------0------------0-----------0-----------0-|D||----------------------------------------------------|A||------10-----------10----------10----------10-------|D||--10-----------10-----------9-----------9-----------|
-------0----------0----------0------------0----|---------0----------0----------0---------------|-----------0----------0----------0-------------|-----0----------0----------0------------0------|-----------------------------------------------|--7----------5----------4----------4h-5-----7--|
---------0------------0-----------0----------0-----|-----------0------------0-----------0----------0---|-------------0------------0-----------0----------0-|---------------------------------------------------|------10-----------10----------10----------0-------|--10-----------10-----------9-----------9----------|
-------0----------0----------0-----------0-----|---------0----------0----------0-----------0---|-----------0----------0----------0-----------0-|-----0-----------------------------------------|----------------7----------9----------10-------|--0----------0----------0----------0-----------|
---------0------------0-----------0-----------0-----|-----------0------------0-----------0-----------0---|-------------0------------0-----------0-----------0-|----------------------------------------------------|------10-----------10----------10----------10-------|--10-----------10-----------9-----------9-----------|
-------0----------0----------0------------0----|---------0----------0----------0---------------|-----------0----------0----------0-------------|-----0----------0----------0------------0------|-----------------------------------------------|--7----------5----------4----------4h-5-----7--|
---------0------------0-----------0-----------0-----|-----------0------------0-----------0-----------0---|-------------0------------0-----------0-----------0-|----------------------------------------------------|------10-----------10----------10----------10-------|--10-----------10-----------9-----------9-----------|
-------0----------0----------0----------0-----|---------0----------0----------0----------0---|-----------0----------0----------0----------0-|-----0----------0-----------------------------|---------------------------7----------9-------|--0----------0----------0----------0----------|
---------0------------0-----------0-----------0-----|-----------0------------0-----------0-----------0---|-------------0------------0-----------0-----------0-|----------------------------------------------------|------10-----------10----------10----------10-------|--10-----------10-----------9-----------9-----------|
-------0----------0----------0------------0----|---------0----------0----------0---------------|-----------0----------0----------0-------------|-----0----------0----------0------------0------|-----------------------------------------------|--7----------5----------4----------4h-5-----7--|
---------0------------0-----------0-----------0-----|-----------0------------0-----------0-----------0---|-------------0------------0-----------0-----------0-|----------------------------------------------------|------10-----------10----------10----------10-------|--10-----------10-----------9-----------9-----------|
-------0----------0----------0----------0-----|---------0----------0----------0----------0---|-----------0----------0----------0----------0-|-----0----------0-----------------------------|---------------------------7----------0-------|--0----------0----------0----------0----------|
-------0----------0----------0----------0-----|---------0----------0----------0----------0---|-----------0----------0----------0----------0-|----------------------------------------------|-----8----------8----------8----------8-------|--8----------8----------8----------8----------|
-------0----------0----------0----------0-----|---------0----------0----------0----------0---|-----------0----------0----------0----------0-|----------------------------------------------|-----9----------9----------7----------5-------|--7----------7----------7----------7----------|
-------0----------0----------0-----------0-----|---------0----------0----------0-----------0---|-----------0----------0----------0-----------0-|-----------------------------------------------|-----8----------8----------8----------10-------|--8----------8----------8----------8-----------|
-------0----------0----------0-----------0-----|---------0----------0----------0-----------0---|-----------0----------0----------0-----------0-|-----------------------------------------------|-----9----------7----------9----------10-------|--7----------7----------7----------7-----------|
---------0------------0-----------0-----------0-----|-----------0------------0-----------0-----------0---|-------------0------------0-----------0-----------0-|----------------------------------------------------|------10-----------10----------10----------10-------|--10-----------10-----------9-----------9-----------|
-------0----------0----------0------------0----|---------0----------0----------0---------------|-----------0----------0----------0-------------|-----0----------0----------0------------0------|-----------------------------------------------|--7----------5----------4----------4h-5-----7--|
---------0------------0-----------0----------0-----|-----------0------------0-----------0----------0---|-------------0------------0-----------0----------0-|---------------------------------------------------|------10-----------10----------10----------0-------|--10-----------10-----------9-----------9----------|
-------0----------0-----0---------0----------|---------0----------0--------0---------10----|-----------0----------0----------------------|-----0----------0----------0---0-----0----0--|---------------------------------------------|--0----------0----------0---------0----------|
---0-----0-------0-----7-------0----0------0----7-----|--10-----0------10-----0------10----0-----10----0-----|--------------0-------------0-----------0-----------0-|------------------------------------------------------|------------------------------------------------------|--10--10---10---10--10---10----9--9---9----9--9---9---|
--5----4-----2----2h0----------0-----2----4-----|-------0------------0-----0----0----------0-----|-----------0------------0----------0----------0-|------------------------------------------------|--0--0---0---0--0-----0-------------------------|--------------------------4--4---4---5--5---7---|
---0-----0-------0-----7-------0----0------0----7-----|--10-----0------10-----0------10----0-----10----0-----|--------------0-------------0-----------0-----------0-|------------------------------------------------------|------------------------------------------------------|--10--10---10---10--10---10----9--9---9----9--9---9---|
--0-----------0-----------0-----------0-----------|--------0-----------0-----------0-----------0-----|------0-----0-----0-----0-----0-----0-----0-----0-|----0-----0-----0-----0-----0-----0-----0-----0---|--------------------------------------------------|--0-----0-----0-----0-----0-----0-----0-----0-----|
---0-----0-------0-----7-------0----0------0----7-----|--10-----0------10-----0------10----0-----10----0-----|--------------0-------------0-----------0-----------0-|------------------------------------------------------|------------------------------------------------------|--10--10---10---10--10---10----9--9---9----9--9---9---|
--5----4-----2----2h0----------0-----2----4-----|-------0------------0-----0----0----------0-----|-----------0------------0----------0----------0-|------------------------------------------------|--0--0---0---0--0-----0-------------------------|--------------------------4--4---4---5--5---7---|
---0-----0-------0-----7-------0----0------0----7-----|--10-----0------10-----0------10----0-----10----0-----|--------------0-------------0-----------0-----------0-|------------------------------------------------------|------------------------------------------------------|--10--10---10---10--10---10----9--9---9----9--9---9---|
--0-----------0---------------5---0---0----0----0---|--------0-----------0-----0---0-0-0---0----0----0---|------0-----0-----0-----0-----0-----0---0----0----0-|----0-----0-----0-----0-----0-----------0-----------|----------------------------------7---9---10---12---|--0-----0-----0-----0-----0-----0-------------------|
---------0------------0-----------0-----------0-----|-----------0------------0-----------0-----------0---|-------------0------------0-----------0-----------0-|----------------------------------------------------|------10-----------10----------10----------10-------|--10-----------10-----------9-----------9-----------|
-------0----------0----------0------------0----|---------0----------0----------0---------------|-----------0----------0----------0-------------|-----5----------5----------5------------5------|--0--------------------------------------------|-------------5----------4----------4h-5-----7--|
---------0------------0-----------0-----------0-----|--0----------------||-----------0------------0-----------0-----------0---|--0----------------||-------------0------------0-----------0-----------0-|--0----------------||----------------------------------------------------|--0----------------||------10-----------10----------10----------10-------|--0----------------||--10-----------10-----------9-----------9-----------|--0----------------||
Tap to rate this tab
 
# A B C D E F G H I J K L M N O P Q R S T U V W X Y Z