Josh Ritter - Another New World tab

#----------------------------------PLEASE NOTE---------------------------------#
#This file is the author's own work and represents their interpretation of the #
#song. You may only use this file for private study, scholarship, or research. #
#------------------------------------------------------------------------------##

                                ANOTHER NEW WORLD
                           As recorded by Josh Ritter
                  (From the 2010 Album SO RUNS THE WORLD AWAY)

Transcribed by Dan Cuconati

Gtr (E A D G B E)

Capo 7th fret

All frets relative to capo (0 = 7th fret)|-------------------------|-------------------------||-------------------------|-------------------------||-----0-----0-----0-----0-|-----0-----0-----0-----0-||---2-----2-----2-----2---|---2-----2-----2-----2---||-------------------------|-------------------------||-0-----0-----0-----0-----|-0-----0-----0-----0-----|
|-------------------------|-------------------------||-------------------------|-------------------------||-----2-----2-----2-----2-|-----2-----2-----2-----2-||---4-----4-----4-----4---|---4-----4-----4-----4---||-3-----3-----3-----3-----|-3-----3-----3-----3-----||-------------------------|-------------------------|
|-------------------------|-------------------------||-------------------------|-------------------------||-----2-----2-----2-----2-|-----2-----2-----2-----2-||---1-----1-----1-----1---|---1-----1-----1-----1---||-2-----2-----2-----2-----|-2-----2-----2-----2-----||-------------------------|-------------------------|
|-------------------------|-------------------------||-------------------------|-------------------------||-----0-----0-----0-----0-|-----0-----0-----0-----0-||---2-----2-----2-----2---|---2-----2-----2-----2---||-------------------------|-------------------------||-0-----0-----0-----0-----|-0-----0-----0-----0-----|
|-------------------------|-------------------------||-------------------------|-------------------------||-----1-----1-----1-----1-|-----1-----1-----1-----1-||---2-----2-----2-----2---|---2-----2-----2-----2---||-------------------------|-------------------------||-0-----0-----0-----0-----|-0-----0-----0-----0-----|
|-------------------------|-------------------------||-----1-----1-----1-----1-|-----1-----1-----1-----1-||---2-----2-----2-----2---|---2-----2-----2-----2---||-------------------------|-------------------------||-0-----0-----0-----0-----|-0-----0-----0-----0-----||-------------------------|-------------------------|
|-------------------------|-------------------------||-----1-----1-----1-----1-|-----1-----1-----1-----1-||---2-----2-----2-----2---|---2-----2-----2-----2---||-0-----0-----0-----0-----|-0-----0-----0-----0-----||-------------------------|-------------------------||-------------------------|-------------------------|
|-------------------------|-------------------------||-----0-----0-----0-----0-|-----0-----0-----0-----0-||-------------------------|-------------------------||---0-----0-----0-----0---|---1-----1-----1-----1---||-------------------------|-2-----2-----2-----2-----||-3-----3-----3-----3-----|-------------------------|
|-------------------------|-------------------------||-------------------------|-------------------------||-----0-----0-----0-----0-|-----0-----0-----0-----0-||---2-----2-----2-----2---|---2-----2-----2-----2---||-------------------------|-------------------------||-0-----0-----0-----0-----|-0-----0-----0-----0-----|
Tap to rate this tab
 
# A B C D E F G H I J K L M N O P Q R S T U V W X Y Z