Juanes - A Dios Le Pido tab

-----------------------------------------------------------------------------
                          A Dios Le Pido by Juanes
-----------------------------------------------------------------------------

e-mail: juanes_fan1@hotmail.com

/: slide up

these are the chords used throughout the song:


Am E/G# G D/F# Fmaj7 E|---5---| |---4---| |---3---| |---2---| |---0---| |---0---||---5---| |---5---| |---3---| |---3---| |---1---| |---0---||---5---| |---4---| |---4---| |---2---| |---2---| |---1---||---7---| |---6---| |---5---| |---4---| |---3---| |---2---||---7---| |---7---| |---5---| |---5---| |---0---| |---2---||---5---| |---4---| |---3---| |---2---| |---1---| |---0---|
here's my version of A Dios Le Pido. this is another great song by Juanes. this part plays as the intro and in the middle of the song(its not complete!!!!)
|---5--x--5--5--x--8--8--8--x--5--5--5--x--5--5----||---5--x--5--5--x--5--5--5--x--5--5--5--x--5--5----||---5--x--5--5--x--5--5--5--x--5--5--5--x--5--5----||---5--x--5--5--x--5--5--5--x--5--5--5--x--5--5----||--------------------------------------------------||--------------------------------------------------|
|--------------------------------------------------||--------------------------------------------------||------4--7--7/-----4--7--7/-----4--7--7/----------||---6------------6------------6------------6--7----||--------------------------------------------------||--------------------------------------------------|
|---5--x--5--5--x--8--8--8--x--5--5--5--x--5--5----||---5--x--5--5--x--5--5--5--x--5--5--5--x--5--5----||---5--x--5--5--x--5--5--5--x--5--5--5--x--5--5----||---5--x--5--5--x--5--5--5--x--5--5--5--x--5--5----||--------------------------------------------------||--------------------------------------------------|
|--------------------------------------------------||--------------------------------------------------||------4--7--7/-----4--7--7/-----4--7--7/----------||---6------------6------------6-----------6--7-----||--------------------------------------------------||--------------------------------------------------|
|--------------------------------------------------||---------5-----5-----------5-----5----------------||------5-----5-----5-----5-----5-----7--4----------||---7-----------------7----------------------------||--------------------------------------------------||--------------------------------------------------|
|--------------------------------------------------||--------------------------------------------------||------4--7--7/-----4--7--7/-----4--7--7/----------||---6------------6------------6------------6--7----||--------------------------------------------------||--------------------------------------------------|
|------------------5--------5-----5--4-------------||---------5-----5-----5--------5--------5----------||------5-----5-----------5-------------------------||---7----------------------------------------------||--------------------------------------------------||--------------------------------------------------|
|------4--7--10--8--6------8--7--------------------||---5------------------10--------10--9--9----------||--------------------------------------------------||--------------------------------------------------||--------------------------------------------------||--------------------------------------------------|
here is the song with the chords: Am Que mis ojos se despierten E7/B con la luz de tu mirada, yo Am A dios le pido Am/D Que mi madre no se muera y E7 Que mi padre me recuerde Am A dios le pido Am Dm Que te quedes a mi lado y E7 Que mas nunca te me vayas mi vida Am A dios le pido Dm Que mi alma no descanse E7 Cuando de amarte se trate mi cielo Am A dios le pido Por los dias que me quedan E7/B Y las noches que aun no llegan, yo Am A dios le pido Am/D Por los hijos de mis hijos E7 Y los hijos de tus hijos Am A dios le pido Dm Que mi pueblo no derrame tanta sangre E7 Y se levante mi gente Am A dios le pido Dm Que mi alma no descanse E7 Cuando de amarte se trate mi cielo Am A dios le pido Am E/G# G Un segundo mas de vida para darte D/F# Y mi corazon entero entregarte Am E/G# G Un segundo mas de vida para darte D/F# Fmaj7 Y a tu lado para siempre yo quedarme E Un segundo mas de vida, yo C A dios le pido G/B Que si me muero sea de amor Y si me enamoro sea de voz Am G Y que de tu voz sea este corazon Todos los dias C A dios le pido G Que si me muero sea de amor E/G# Am Y si me enamoro sea de voz D/F# G Y que de tu voz sea este corazon E/G# Todos los dias Am E A dios le pido Am A dios le pido
E Am|---0---------------|---5--------------| |---0---------------|---5--------------||---1---------------|---5--------------||---2---------------|---7--------------||---2---------------|---7--------------||---0---------------|---5--------------|
Tap to rate this tab
 
# A B C D E F G H I J K L M N O P Q R S T U V W X Y Z