Out In The Cold tab with lyrics by Judas Priest - Easy chords and tabs for guitar

Judas Priest – Out In The Cold tab

Band :Judas Priest
album:turbo
song: Out in the cold  
                              
 tuning: (E A D G B E)

 - 'Synthesizer'
 - 'Distorted Guitar'
 - 'Distorted Guitar'
 - 'Clean w/ Chorus'

Intro Q=90 4/4 Gtr I||------------------|------------|------------------|---------------||||o-----------------|------------|------------------|--------------o||||------------------|---5-5------|-----5------2-5-2-|-4-5--4--2-----||||------5-----5-----|-2---2------|---2------2-------|-5-5--5--0-----||||o---2-----3---3-0-|-----0------|-3------0---------|--------------o||||--0-----0---------|------------|------------------|---------------||
|-----------|----------|------||-----------|----------|------||-----------|----------|------||-----------|-4--------|-4----||------2----|----------|-2----||-0---------|----------|-0----|
|-12--15------------|-------------------||--------15-(15)----|-14-----12-(12)----||-------------------|-----14------------||-------------------|-------------------||-------------------|-------------------||-------------------|-------------------|
~~|-12--15-----------------|---------------||--------15-(15)\--10-12-|-(12)----12----||------------------------|---------------||------------------------|---------------||------------------------|---------------||------------------------|---------------|
|-12--15------------|-------------------||--------15-(15)----|-14-----12-(12)----||-------------------|-----14------------||-------------------|-------------------||-------------------|-------------------||-------------------|-------------------|
~~~~|-12--15-14-(14)-----12-|-(12)---(12)--(12)\---||-----------------15----|----------------------||-----------------------|----------------------||-----------------------|----------------------||-----------------------|----------------------||-----------------------|----------------------|
|---12---10---9-|--(9)-10--(10)\-7-8-7-(7)\-|---12---15--14-|-(14)--14-(14)--||---12---10--10-|-(10)-10--(10)\-8-8-8-(8)\-|---12---13--14-|-(14)--13-(13)--||---------------|---------------------------|---------------|----------------||---------------|---------------------------|---------------|----------------||---------------|---------------------------|---------------|----------------||---------------|---------------------------|---------------|----------------|
|---12---10---9-|--(9)-10--(10)\-7-8-7-|---7--7-8---|-8---10-(10)----||---12---10--10-|-(10)-10--(10)\-8-8-8-|---8--8-8---|-6----8--(8)----||---------------|----------------------|------------|----------------||---------------|----------------------|------------|----------------||---------------|----------------------|------------|----------------||---------------|----------------------|------------|----------------|
Q=103 Gtrs II, III|-------------|---------------------|-------------|-----------||-------------|---------------------|-------------|-----------||-2---2--5----|-2--(2)S5-(5)---(5)\-|-2---2--5----|-----------||-2---2--5----|-2--(2)S5-(5)---(5)\-|-2---2--5----|-4----3----||-0---0-----0-|---------------------|-0---0-----0-|-5----5----||-------------|---------------------|-------------|-----------|
|-------------|---------------------|-------------|---------------||-------------|---------------------|-------------|---------------||-2---2--5----|-2--(2)S5-(5)---(5)\-|-2---2--5----|---------------||-2---2--5----|-2--(2)S5-(5)---(5)\-|-2---2--5--7-|-(7)------(7)--||-0---0-----0-|---------------------|-0---0-----5-|-(5)------(5)--||-------------|---------------------|-------------|---------------|
Verse||--------------|------------|-------------|-----------------|||o-------------|------------|-------------|-----------------|||--------------|------------|-------------|-----------------|||-----2---5--4-|-(4)--------|----2---5--4-|-(4)-5--5s=7-7---|||o-0--2---5--5-|-(5)--------|-0--2---5--5-|-(5)-5--3s=5-5---|||--------------|------------|-------------|-----------------|
|-------------|------------|-------------|----------------||-------------|------------|-------------|----------------||-------------|------------|-------------|----------------||----2---5--4-|-(4)--------|----2---5--4-|-(4)-5--5s=7-7--||-0--2---5--5-|-(5)--------|-0--2---5--5-|-(5)-5--3s=5-5--||-------------|------------|-------------|----------------|
|-------------|------------|----------|--------||-------------|------------|----------|--------||-------------|------------|---2------|-(2)----||-(7)--3------|-(3)--------|---2------|-(2)----||-(5)--3------|-(3)--------|---0------|-(0)----||------1------|-(1)--------|----------|--------|
|----------|------------|------------|----------------||----------|------------|------------|----------------||----------|------------|----5---4---|----------------||---3------|-(3)--------|----5---5---|----9--(9)-6----||---3------|-(3)--------|------------|-7--7--(7)-7--0-||---1------|-(1)--------|-3----------|-0--------------|
Chorus Gtr II|-------------|-----------------------|-------------|--------------||-------------|-----------------------|-------------|------6--8----||-------------|--------------5-5--7---|-----------5-|-7------------||-------------|-----------------------|-7-----------|--------------||-------------|-----------------------|-------------|--------------||-------------|-----------------------|-------------|--------------|
|
| Gtr III|-------------|-----------------------|-------------|--------------||-------------|-----------------------|-------------|--------------||-2---2--5----|-2--(2)S5-(5)-----(5)\-|-2---2--5----|--------------||-2---2--5----|-2--(2)S5-(5)-----(5)\-|-2---2--5----|-4----3-------||-0---0-----0-|-----------------------|-0---0-----0-|-5----5-------||-------------|-----------------------|-------------|--------------|
|-------------|-----------------------|----------------|---------|||-------------|-----------------------|----------------|--------o|||-------------|--------------5-5--7---|--------5---7---|-(7)-----|||-------------|-----------------------|-7--7-----------|---------|||-------------|-----------------------|----------------|--------o|||-------------|-----------------------|----------------|---------||
|
|-------------|-----------------------|----------------|---------|||-------------|-----------------------|----------------|--------o|||-2---2--5----|-2--(2)S5-(5)-----(5)\-|-2----2---5-----|---------|||-2---2--5----|-2--(2)S5-(5)-----(5)\-|-2----2---5---7-|-(7)-----|||-0---0-----0-|-----------------------|-0----0-------5-|-(5)----o|||-------------|-----------------------|----------------|---------||
Bridge Gtrs II, III||-------------|---------------|-----------|-------------||||o------------|---------------|-----------|------------o||||-------------|---------------|-----------|-------------||||-----9---4---|--7--5--5------|----9---4--|--7--5--6-7--||||o----7---5---|--4--3--2------|----7---5--|--4--3--4-5-o||||--0----------|-----------3s2-|-0---------|-------------||
Interlude D5 Bb5 G5 A5 Bb5 C5 Gtr III | | | | | | | / / / / / / /
Gtr IV|-------1-(1)-----3-|-(3)-----1-(1)-0-----|----------------|-----------------||-3---3---------3---|-------3---------3-1-|-------3--------|-----------------||---2---------2-----|-----2---------------|-----3----------|-----2-----------||-------------------|---------------------|---3----------5-|---2---2---3-----||-------------------|---------------------|-1----------5---|-0-------1-----5-||-------------------|---------------------|----------3-----|-------------3---|
D5 Bb5 G5 C5A/C# | | | | | | / / / / / /
|-------1-(1)-----3-|-(3)-----1-(1)-0-----|----------------|-----------------||-3---3---------3---|-------3---------3-1-|-------3--------|---------------5-||---2---------2-----|-----2---------------|-----3----------|-----5-------6---||-------------------|---------------------|---3----------5-|---5---5---7-----||-------------------|---------------------|-1----------5---|-3-------4-------||-------------------|---------------------|----------3-----|-----------------|
D5 Gtr III | | / /
Gtr II|-------------------|----------------------||-------------------|----------------------||-7-----------------|----------------------||----7-8-(8)--(8)\--|-7--------------------||-------------------|----8-10-(10)--(10)\--||-------------------|----------------------|
| | / /
|------------------|-------------------------||------------------|-------------------------||------------------|------7-6-6-------6---9--||-3----------------|--------------7----------||----5s7-(7)\--0-5-|-(5)--------7---7---7----||------------------|-------------------------|
| || | | | | | | || | | | | | / // / / / / / / // / / / / /
|-------------------|----------------------||-------------------|----------------------||-7-----------------|----------------------||----7-8-(8)--(8)\--|-7--------------------||-------------------|----8-10-(10)--(10)\--||-------------------|----------------------|
| || | | || | | || | | | | | / // / / // / / // / / / / /
|------------------|-------------------------||------------------|-------------------------||------------------|------7-6-6-------6---9--||-3----------------|--------------7----------||----5s7-(7)\--0-5-|-(5)--------7---7---7----||------------------|-------------------------|
Guitar Solo Gtr II|-12----12------12------12------12\---||-15b17-15b17---15b17---15b17---15\---||-------------------------------------||-------------------------------------||-------------------------------------||-------------------------------------|
|
| Gtr III| PM||-------------------------------------||-------------------------------------||-------------------------------------||-------------9---------------7-----7-||-------------7---------------5-----5-||--0------------------0--0------------|
|-10------10------10-----10-------------|-----------------------------------||-13b15---13b15---13b15--13b15---(13)\--|-15b17r=====15-15------------15-14-||---------------------------------------|-14----(14)-12-14b16r(14)----------||---------------------------------------|--------------------------14-------||---------------------------------------|-----------------------------------||---------------------------------------|-----------------------------------|
|
| PM---||---------------------------------------|-----------------------------------||---------------------------------------|-----------------------------------||-------------------------4----5---4----|-----------------------------------||--7----7-------7---------5----5---5----|-------------9-------------5--7----||--4----5-------4-----------------------|-------------7-------------5--4----||---------------------------------------|--0-------------0------0-----------|
|------------------------------|---------------22----(22)---------------||-14---14--13-(13)-13b14-(13)--|-22b24r(22)-20-22b24-(22)b24-(22)-------||------------------------------|----------------------------------21-21-||------------------------------|----------------------------------------||------------------------------|----------------------------------------||------------------------------|----------------------------------------|
|
| PM---||------------------------------|----------------------------------------||------------------------------|----------------------------------------||------------------------------|----------------------------------------||-(7)---7---7---7--------------|-------------9-----------------7------7-||-(4)-------3---3--------------|-------------7-----------------5------5-||------------------------------|--0-------------0------0----------------|
|---------------5-------------------------||-----------------8p5--5b7---[5]b7r=======||-(21)\---7-7b9------------7-------7-(7)p=||-----------------------------------------||-----------------------------------------||-----------------------------------------|
|
|-----------------------------------------||-----------------------------------------||---------------4-5-4---------------------||---7---7-7-----5-5-5---------------------||---4---5-4-------------------------------||-----------------------------------------|
T T T T T|---------------------------------------------------------||---------------------------------------------------------||-5p0-12p5h7-14p5h7-12p5h7-5--------------------------7-5-||----------------------------12p==5h7---------------5-----||----------------------------12----------------5--7-------||-------------------------------------12p==5h7------------|
|
| PM---------||---------------------------------------------------------||---------------------------------------------------------||---------------------------------------------------------||-------------9--------------------------7------------7---||-------------7--------------------------5------------5---||-0------------------0----------0-------------------------|
\2/|--------------------------||--------------------------||-7-5-9p0-(0)-------(0)-14-||--------------------------||--------------------------||--------------------------|
|
|--------------------------||--------------------------||---------------4-5--4-----||-7---7----7----5-5--5-----||-4---5----4---------------||--------------------------|
~|-----------------|----------------|-------------------|------------------||-----------------|----------------|-------------------|------------------||---9-8---8-7---7s|=5---5s4--------|-----9-8---8-7---7s|=5---5-7-(7)------||-------7-----7---|---7-----7----7-|-(7)-----7-----7---|---7---------5----||-----------------|-----------0----|-------------------|------------------||-----------------|----------------|-------------------|------------------|
|
| ~|-----------------|----------------|-------------------|------------------||-----------------|----------------|-------------------|------------------||-----------------|----------------|-------------------|------------------||-----------------|----------------|-------------------|------------------||-0-7-6-0-6-5-0-5s|=3-0-3s2-0-0--0-|--0--7-6-0-6-5-0-5s|=3-0-3-5-(5)-0--0-||-----------------|----------------|-------------------|------------------|
|---17------17----17-------------------||---20b22---20b22-20b22---(20)\--19b20-||--------------------------------------||--------------------------------------||--------------------------------------||--------------------------------------|
|
| PM---||--------------------------------------||--------------------------------------||--------------------------------------||---------9-------------7---------7----||---------7-------------5---------5----||-0----------0-----0-------------------|
~~~~~|-----------------------------------15h17h22p=||-(19)-19-20---19-20-20----15h17h22-----------||---------------------------------------------||---------------------------------------------||---------------------------------------------||---------------------------------------------|
|
|---------------------------------------------||---------------------------------------------||---------------------4-5---4-----------------||---7---7----7--------5-5---5-----------------||---4---5----4--------------------------------||---------------------------------------------|
|-17p15h17-15h17-15h17-------15h17-15h17----------------------------------||----------------------15----------------17p15h17p15----15----------------||----------------------------------------------------17----17s14-14-19p14h||-------------------------------------------------------------------------||-------------------------17----------------------------------------------||-------------------------------------------------------------------------|
|
| PM---------||-------------------------------------------------------------------------||-------------------------------------------------------------------------||-------------------------------------------------------------------------||-----------------------9--------------------------7--------------7-------||-----------------------7--------------------------5--------------5-------||--0--------------------------0-----------0-------------------------------|
|-------------------------------------------||-------------------------------------------||-17p14----14-------------------------------||-------19----19p14-17p14----14-------------||-------------------------19----------------||-------------------------------17-(17)\----|
|
|-------------------------------------------||-------------------------------------------||--------------------------------4---5---4--||--7-----7-----7-----------------5---5---5--||--4-----5-----4----------------------------||-------------------------------------------|
Out-Chorus|----------|------------|----------|--------||----------|------------|----------|--------||----------|------------|---2------|-(2)----||---3------|-(3)--------|---2------|-(2)----||---3------|-(3)--------|---0------|-(0)----||---1------|-(1)--------|----------|--------|
|----------|------------|------------|----------------||----------|------------|------------|----------------||----------|------------|----5---4---|----------------||---3------|-(3)--------|----5---5---|----9--(9)-6----||---3------|-(3)--------|------------|-7--7--(7)-7--0-||---1------|-(1)--------|-3----------|-0--------------|
5x||--------------|---------------------|-------------|-----------||||o-------------|---------------------|-------------|----------o||||--2---2--5----|-2--(2)S5-(5)---(5)\-|-2---2--5----|-----------||||--2---2--5----|-2--(2)S5-(5)---(5)\-|-2---2--5----|-4----3----||||o-0---0-----0-|---------------------|-0---0-----0-|-5----5---o||||--------------|---------------------|-------------|-----------||
Outro Gtr II|-----------------|------------------------|-------------------|--------*||-----------------|------------------------|-------------------|--------*||---9-8---8-7---7s|=5----5s=4--------------|-----9-8---8-7-----|--------*||-------7-----7---|---7--------7----7------|-(7)-----7-----7-7-|-(7)----*||-----------------|---------------0--------|---------------0-5-|-(5)----*||-----------------|------------------------|-------------------|--------*|
|
| Gtr III|-----------------|------------------------|-------------------|--------*||-----------------|------------------------|-------------------|--------*||-2-----2---5-----|-2---(2)S5-(5)-----(5)\-|--2------2---5-----|--------*||-2-----2---5-----|-2---(2)S5-(5)-----(5)\-|--2------2---5---7-|-(7)----*||-0-----0-------0-|------------------------|--0------0-------5-|-(5)----*||-----------------|------------------------|-------------------|--------*|
Please rate this tab:
x1.0