Judas Priest – Defenders Of The Faith tab ver. 2

Judas priest - Defenders of the Faith album
songs:

1.Freewheel Burning
2.Jawbreaker
3.Rock Hard Ride Free
4.The Sentinel
5.Love Bites
6.Eat Me Alive
7.Some Heads Are Gonna Roll
8.Night Comes Down
9.Heavy Duty
10.Defenders Of The Faith


TABLATURE LEGEND
----------------
 h   - hammer-on
 p   - pull-off
 b   - bend
 pb  - pre-bend
 r   - bend release (if no number after the r, then release immediately)
 /\  - slide into or out of (from/to "nowhere")
 s   - legato slide
 S   - shift slide
  - natural harmonic
[n]  - artificial harmonic
n(n) - tapped harmonic
 ~   - vibrato
 tr  - trill
 T   - tap
 TP  - trem. picking
 PM  - palm muting
\n/  - tremolo bar dip; n = amount to dip
 \n  - tremolo bar down
 n/  - tremolo bar up
/n\  - tremolo bar inverted dip
 =   - hold bend; also acts as connecting device for hammers/pulls
 <>  - volume swell (louder/softer)
 x   - on rhythm slash represents muted slash
 o   - on rhythm slash represents single note slash
 |  - bar
||  - double bar
||o - repeat start
o|| - repeat end
*|  - double bar (ending)
 :  - bar (freetime)
 $  - Segno


1 .  Freewheel Burning

Tunning E A D G B E

 Intro

[-----------PM---------------|E-----------------------------|B-----------------------------|G-----------------------------|D-7----7----7----7---7---7----|A-0-00-0-00-0-00-0-0-0-0-0----|E-----------------------------|
riff 1 Main Riff [PM] [PM] [PM]E-----------------------|B-----------------------|G----7-5-----7----7-5---|D----7-5-----7----7-5---|A-00------00---00--0----|E-----------------------|
VerseRiff 2 [--------PM--------] [--------PM----------------|E--------------------------------------------------|B--------------------------------------------------|G--------------------2p0--------------------2p0----|D--------------------2p0--------------------2p0----|A-0-0-0-0-0-0-0-0-0-00---0-0-0-0-0-0-0-0-0-00------|E--------------------------------------------------|
[--------PM--------] [---------PM--------------|E--------------------------------------------------|B--------------------------------------------------|G--------------------------------------------------|D-5-5-5-5-5-5-5-5-5-55p4-5-5-5-5-5-5-5-5-5-5-5-----|A--------------------------------------------------|E--------------------------------------------------| Play riff 1 (2x)
Pre - chorus
E-------------------------------------------------------|B-------------------------------------------------------|G-----------------------9-9-----------------------------|D-9\7/9---------9\7/9---9-9-9\7/9---------9-7-9-9-7-5-4-|A-7\5/7-7-7p5---7\5/7---7-7-7\5/7-7-7p5---7-5-7-7-5-3-2-|E-0-----0-----3p0-----0-----0-----0-----3p0-------------|
ChorusGuitar 1 Play as pinch harmonics with vibratoE[-------------------------------------|B[-------------------------------------|G[-------------------------------------|D[-2-2-2-2--------5-5-----5-5-----5----|A[-0-0-0-0----5-7-----5-7-----5-7------|E[-------------------------------------|
[ [ [Guitar 2 Play as pinch harmonics with vibratoE[-------------------------------------|B[----------------8-8-----8-8-----8----|G[------------7-9-----7-9-----7-9------|D[-2-2-2-2-----------------------------|A[-0-0-0-0-----------------------------|E[-------------------------------------|
Guitar 1E[----------------------------|B[----------------------------|G[---3-5---3-5---3-5---5-6p5--|D[-5-3-5-5-3-5---3-5-5-5-6p5--|A[-5-----5-----5-----5--------|E[----------------------------|Rpt
[Guitar 2 Pick scrapeE[--------------------------------|B[--------------------------------|G[--------------------------\-\---|D[---------------------------\-\--|A[--------------------------------|E[--------------------------------|Rpt
Guitar 1 [PM]E[------------------------------------------------------------|B[------------------------------------------------------------|G[---5-7---5-7---5-7---7-8p7---5-7---6-8---7-9-------9-10-11--|D[-7-5-7-7-5-7-7-5-7-7-7-8p7-7-5-7-8-6-8-9-7-9-----9-9-10-11--|A[-7-----7-----7-----7-------7-----8-----9---------9----------|E[---------------------------------------------7-7------------|
[Guitar 2E[------------------------------------------------------------|B[-10-10-10----------10-10-10------6------7-------------------|G[-12b12b12b---------12b12b12b-----8b-----9b------------------|D[------------------------------------------------------------|A[------------------------------------------------------------|E[------------------------------------------------------------|
Pre soloRiff|---------------------------------------------------------------------------||---------------------------------------------------------------------------||---------------------------------------------------------------------------||---------4-------------------2-----------------------------7--9--6--4-----4||-2222222-2-let ring--2222222-0-let ring---------5----------5--7--4--1--4--2||----------------------------------------2222222-3-let ring-------------2---|
Gleen solo
--22br-------------Lb~----|--L------------L------|--------------------------|------------------12--|--------------------------|----------------------|--------------------------|----------------------|--------------------------|----------------------|--------------------------|----------------------|
|---3---| |---3---| |---3------------------|--12----------12-------------------------|---------------------------------|------15--12------15--12------12--15b----|--L--12--15--12------------------|--------------------------14-------------|-----------------14--12----------|-----------------------------------------|---------------------------------|-----------------------------------------|---------------------------------|-----------------------------------------|---------------------------------|
|--3--| |--3--| |--3--| |--3-------|----------------------------------------|----------------------------------------|----------------------------------------|----------------------------------------|-----------------------------5--7--9----|--3--5--7--3--5--7--5--7--9-------------|
|--3--| |---3--| |---3--| |---3--|
-----------------------------------------|-----------------------------------------|-----------------------------------------|-----------------------------------------|-------------------------------7--9--11--|--5--7--9--7--9--11--7--9--11------------|
|---3---| |---3---| |---3---| |---3--------|----------------------------------------------------|----------------------------------------------------|----------------------------------------------------|--------------------------------------12--13--------|--------------12--14------12--13--14----------14----|--12--14--15----------15----------------------------|
|---3---| |---3--------------------------------|--------------------------------------|------------------------|--------------------15b----15p----12--|--13--------------------|--------------12----------------------|------------14----------|--12--13--14--------------------------|------------------------|--------------------------------------|------------------------|--------------------------------------|------------------------|
-------------/17--------|---L---------------------|-------------------------|------------------------|-------------------------|-------------------------|---L\-------------------|--------4br-----------2--|--4--2-----2--4--2-------|------------------------|-------------------4-----|--------4-----------4----|------------------------|-------------------------|-------------------------|------------------------|-------------------------|-------------------------|
------------------------------|------------------------------|------5-----------------------|------5-----------------------|--7b-----<>8--5--7--5------5--|--7b-----<>8--5--7--5------5--|-----------------------7~-----|-----------------------7~-----|------------------------------|------------------------------|------------------------------|------------------------------|
|---3--------|--------------------------|----------------------------------|--------------------------|--------------------17--19--20----|--5-----------------------|----------------------------------|-----7--5-----7-----5-----|----------------------------------|-----------7-----7-----7--|--6--7-----7----------------------|--------------------------|--------8-----5~------------------|
|---3---| |---3---| |---3--------------------|--17----------------------15--17--17----------------|------18--17--16--17--17--------------18-18-17------|-----------------------------------------------20---|----------------------------------------------------|----------------------------------------------------|----------------------------------------------------|
------17--20-----------------------|--17----------17h-20---------------|---------------------17~----L--17--|-----------------------------------|-----------------------------------|-----------------------------------|
|---3---| |---3---| |---3--------|------------------------------------------------|------------------------------17----------------|--17--17--16---L--16--16--19------19--16--18----|------------------------------------------------|------------------------------------------------|------------------------------------------------| |---3-----------------------------|
------------------------------------|-------------------------|--17--------------------------------|--20b---L--L----L--------|------18p-17------------------------|-------------------------|-------------19--17-----------------|-------------------------|---------------------19-------------|-------------------------|-------------------------17---------|-------------------------|
--17------17--20b--L----20--17--|------20------------------------|--------------------------------|--------------------------------|--------------------------------|--------------------------------|
|---3---| |---3---| |---3---|
--20--17------17--------------------------------|----------20------20--17--20--17------17-20-17--|----------------------------------19------------|------------------------------------------------|------------------------------------------------|------------------------------------------------|
----------------------------------|--------------------|--15br---L--13--------------------|--------------------|------------------14br---L--12----|--7~----------------|----------------------------------|--------------------|----------------------------------|--------------------|----------------------------------|--------------------|
The notes for the solo are E, then A. Twin guitar stuff
|---------------------------------------------------------------||-----15~--13--11--10~--11--10--8--6--10--8h10p8--6--5----------||---------------------------------------------------------------||-12------------------------------------------------------------|guitar 1|---------------------------------------------------------------||---------------------------------------------------------------|
| ||---------------------------------------------------------------||---------------------------------------------------------------||---------------------------------------------------------------||-7--------5------------3-------------2-------------------------|guitar 2|-5---8----3--------3---1-------5-----0---5-------3--2----------||-----6-------------1-----------3---------3-------1--0----------|
|---------------------------------------------------------------||-----15~--13--15--10~--11--10--8--6--10--8h10p8--6--5----------||---------------------------------------------------------------||-12------------------------------------------------------------|Guitar 1|---------------------------------------------------------------||---------------------------------------------------------------|
| ||---------------------------------------------------------------||---------------------------------------------------------------||-----7~---5---7------------------------------------------------||------------------7~---8---7--5---3--7---5h7p5---3--2----------|Guitar 2|-5~------------------------------------------------------------||---------------------------------------------------------------|
| ||---------------------------------------------------------------||---------------------------------------------------------------||---------------------------------------------------------------||-7--------5------------3-------------2-------------------------|Guitar 3|-5---8----3--------3---1-------5-----0---5-------3--2----------|(backing)|-----6-------------1-----------3---------3-------1--0----------|
This one looks pretty messed up, but Guitar 1 plays the lower notes and guitar 2 the higher
|----------------------------| |-----------------------------------------||----------------------------| |-----------------------------------------||----------------------------| |--------------------------9~--7h9p7--5-4~||10-77-9-77-10-77-9-77-10-7-9| |9-55-7-55-9-55-7-55-9-5-7----------------||----------------------------|X2 |-----------------------------------------||----------------------------| |-----------------------------------------|
| | | ||----------------------------| |-----------------------------------------||----------------------------| |--------------------------9~--7h9p7--5-9~||9--55-7--55-9-55-7-55-9--5-7| |7-44-5-44-7-44-5-44-7-4-5----------------||----------------------------|X2 |-----------------------------------------||----------------------------| |-----------------------------------------||----------------------------| |-----------------------------------------|
|----------------------------| |-----------------------------------------||----------------------------| |-----------------------------------------||----------------------------| |--------------------------9~///////21~---||10-77-9-77-10-77-9-77-10-7-9| |9-55-7-55-9-55-7-55-9-5-7----------------||----------------------------|X2 |-----------------------------------------||----------------------------| |-----------------------------------------|
| | | ||----------------------------| |-----------------------------------------||----------------------------| |--------------------------9~/////////21~-||9--55-7--55-9-55-7-55-9--5-7| |7-44-5-44-7-44-5-44-7-4-5----------------||----------------------------|X2 |-----------------------------------------||----------------------------| |-----------------------------------------||----------------------------| |-----------------------------------------|
The backing riff for that piece is:
|---------------------------------------------------------------||---------------------------------------------------------------||---------------------------------------------------------------||-2------------------------------------------9------------------||-0--let ring---3--------------5-------------7--let ring--------||---------------1--let ring----3--let ring----------------------|
Riff H (please correct this)
|--10-10--9-9--7-7--9-9--10--7---10-10--9-9--7-7--9-9--12--9----||--0--0---0-0--0-0--0-0--0---0---0--0---0-0--0-0--0-0--0---0----||---------------------------------------------------------------||---------------------------------------------------------------||---------------------------------------------------------------||---------------------------------------------------------------|
| ||---------------------------------------------------------------||---------------------------------------------------------------||---------------------------------------------------------------||--4--mute-----------------------2---let ring-------------------||--2-----------------------------0------------------------------||---------------------------------------------------------------|
2 Jawbreaker standard tuning
Intro riffe|----------------------|B|----------------------|G|----------------------|D|-9-----7--10--10--9=--|A|-7--9--5---8---8--7=--|E|----7-----------------|
Verse 1 & 2e|-----------------|-----------------|-----------------|B|-----------------|-----------------|-----------------|G|-----------------|-----------------|-----------------|D|-9-----9---------|-5-----5---------|-4-----4---------|A|-7-7-7-7-7-7-7-7-|-3-3-3-3-3-3-3-3-|-2-2-2-2-2-2-2-2-|E|---.-.---.-.-.-.-|---.-.---.-.-.-.-|---.-.---.-.-.-.-|
|
e|--------------------------------|B|--------------------------------|G|-----------------------7-9-10-7-| Play this in the last time.D|-9-----9---------9--------------|A|-7-7-7-7-7-7-7-7-7-7-7----------|E|---.-.---.-.-.-.---.-.----------|
Bridgee|---------------------------------------------------|B|---------------------------------------------------|G|---------------------------------------------------|D|-7--8--9=--7--8--9-----9---------9-----9---------9-|A|-5--6--7=--5--6--7-7-7-7-7-7-7-7-7-7-7-7-7-7-7-7-7-|E|-------------------.-.---.-.-.-.---.-.---.-.-.-.---|
|
e|-----------------------|B|-----------------------|G|-----------------------|D|-7--8--9---------------|A|-5--6--7--9--10--7--9=-|E|----------7---8--5--7=-|
Choruse|---------------------------------------------------------------------------|B|---------------------------------------------------------------------------|G|-------10-----10-9-------10-----10-12-------10-----10----------------------|D|-------10-----10-9-------10-----10-12-------10-----10----------------------|A|-0-0-0----0-0------0-0-0----0-0-------0-0-0----0-0----0-0------------------|E|-.-.-.----.-.------.-.-.----.-.-------.-.-.----.-.----.-.------------------|
|1st end 2nd end: only in the 1st time of the choruse|-----------------|-----------------|B|-----------------|-----------------| In the 2nd and 3rd timesG|-10-9------------|-----------------| of the chorus, the "2nd end"D|------10-12-10-9-|-8-7-------------| change. But i didn't find theA|-----------------|-----10-9-7------| right notes.E|-----------------|------------10-9-|
Interlude: 2Xe|-----------------------------------------------------|B|-----------------------------------------------------|G|-----------------------------------------------------|D|-2-------------5-------------7-----7-----5-----5-----|A|-0-0-0-0-0-0-0-3-0-0-0-0-0-0-5-0-0-5-0-0-3-0-0-3-0-0-|E|---.-.-.-.-.-.---.-.-.-.-.-.---.-.---.-.---.-.---.-.-|
Solo 1st part. 1st, 2nd and 3rd timesE|-------------------------------------------------------|B|-------------------------------------------------------|G|-------------------------------------------------------|D|-------------------------------------------------------|A|-2-------------5-------------7-------------5-----5-----|E|-0-0-0-0-0-0-0-3-0-0-0-0-0-0-5-0-0-0-0-0-0-3-0-0-3-0-0-|
| . . . . . . . . . . . . . . . . . . . . . . | 4th timeE|---------------------------------------------------------|B|---------------------------------------------------------|G|---------------------------------------------------------|D|---------------------------------------------------------|A|-2-------------5-------------7-------------5-----5-----7-|E|-0-0-0-0-0-0-0-3-0-0-0-0-0-0-5-0-0-0-0-0-0-3-0-0-3-0-0-5-|
Solo kk downing /1\ \3----------------------17S--|---L-------------------|------------------------|---------------------------|------------10---------|------------------------|--L--------5---------------|------------------0----|--L----0--------L--7g9--|--L--------5---------------|-----------------------|------------------------|-----0--0-------0--0-------|-----------------------|------------------------|---------------------------|-----------------------|------------------------|
Hit 3rd st open, dive \3 \3-----------------------------|-------------------------|-----------------------------|-------------------------|--L----0---------------------|--9g12----9--0--L--------|-----------------------------|-------------------------|-----------------------------|-------------------------|-----------------------------|-------------------------|
---------------------------------|---------------------------------|--L--------L--9--12p--9S--8--11--|---------------------------------|---------------------------------|---------------------------------|
\3------------------------------------------------|-----------------------|------------------------------------------------|-----------------------|--9--12p--9S--8--11--9--12p--9S--8--11--9--12h--|--9--0----L------------|------------------------------------------------|-----------------------|------------------------------------------------|-----------------------|------------------------------------------------|-----------------------|
/1\-------------------|---------12-----------------12----------|-------------------|--15b--------15--12--15b--------15--12--|--0----------------|----------------------------------------|-------------------|----------------------------------------|-------------------|----------------------------------------|-------------------|----------------------------------------|
---------15-------------12--15b--|--L--15--14--12------------------|--15b--------<>12~---------------|-----------------15--12----------|---------------------------------|-------------------------14--12--|---------------------------------|---------------------------------|---------------------------------|---------------------------------|---------------------------------|---------------------------------|
\4--------------------------------|----------------------------12--|--------------------------------|--14--12------------------------|----------14br----(14)----------|--------------------------------|
--------------------------------------------------------|--15p-12-----12-15p-12-----12-15p-12-----12-15p-12-15b--|---------14b--L--------14b--L--------14b--L-------------|--------------------------------------------------------|--------------------------------------------------------|--------------------------------------------------------|
--------------12---------12---------12--|---------15------------|--L--15--15b------15b--------15b--------|--15b-----L------------|----------------------------------------|-----------------------|----------------------------------------|-----------------------|----------------------------------------|-----------------------|----------------------------------------|-----------------------|
---L----------------|----------------------------------------------|---L----------------|----------------------------------------------|--------------------|----------------------------------------------|--------------------|----------------------------------------------|--------------------|--3p--2p--0--3p--2p--0--3p--2p--0--3p--2p--0--|--------------------|----------------------------------------------|
----------------------------------------------|----------------------------------------------|--5p--4p--0--5p--4p--0--5p--4p--0--5p--4p--0--|----------------------------------------------|----------------------------------------------|----------------------------------------------|
-------------------------------------------------|-------------------------------------------------|--7p--5p--0--9p--7p--0--10p--9p--0--12p--10p--0--|-------------------------------------------------|-------------------------------------------------|-------------------------------------------------|
-----------------------------------------------|-----------------------------------------------|--10p--9p--0--7h-9p-7p-0-7p--5p--0--5p--4p--0--|-----------------------------------------------|-----------------------------------------------|-----------------------------------------------|
----------------------------------------------|----------------------------------------------|----------------------------------------------|----------------------------------------------|--3p--2p--0--3p--2p--0--3p--2p--0--3p--2p--0--|----------------------------------------------|
----------------------------------------------|----------------------------------------------|--5p--4p--0--5p--4p--0--5p--4p--0--5p--4p--0--|----------------------------------------------|----------------------------------------------|----------------------------------------------|
-------------------------------------------------|-----------------------|-------------------------------------------------|-----------------------|--7p--5p--0--9p--7p--0--10p--9p--0--12p--10p--0--|--9--------------------|-------------------------------------------------|-----------12----10----|-------------------------------------------------|-----------------------|-------------------------------------------------|-----------------------|
-------------------------|------------------------|-------------------------|-------------------------|------------------------|-------------------------|-------------------------|------------------------|--14------16------16b----|----------10------12b----|--12------14------15----|-------------------------|--12---------------------|------------------------|-------------------------|-------------------------|------------------------|-------------------------|
------------------------|------------------------|--13------15------17----|------------------------|--13------15------17----|------------------------|--16------14------16----|------------------------|------------------------|------------------------|------------------------|------------------------|------------------------|------------------------|------------------------|------------------------|------------------------|------------------------|
--19------20------22----|--22b----------------|------------------------|---------------------|------------------------|---------------------|------------------------|---------------------|------------------------|---------------------|------------------------|---------------------|
--15p--12------15p--12-------------------------------|-----------15-----------15--15p--12------12----------|-------------------------------------14------14--14--|-----------------------------------------------------|-----------------------------------------------------|-----------------------------------------------------|
-----------------------------------------------|-----------------------------------------------|--14p--12------12S--9------9S--8-----8---------|-----------14----------12---------9-----9p--7--|-----------------------------------------------|-----------------------------------------------|
|---3---| |---3---| |---3---| |-3|
E E E E E E E E E E Q-------------------------------------------|-------------------------------------------|-------------------------------------------|--9p--7------7---------------------9--7----|---------10-----10--10--9p--7h--9----------|-------------------------------------------|
NH NH NH NH NH NH \3 |------3------| |------3------|
Q Q Q Q Q Q H H---------<>7--------------------------------|--------------------|--<>7---------------------------------------|--------------------|----------------<>7----<>5-----------<>7----|--------------------|------------------------------<>7-----------|--------------------|--------------------------------------------|--------------------|--------------------------------------------|--7--------7--------|
Solo 2nd part 2XE|-----------------------------------------------------------------|B|-----------------------------------------------------------------|G|-----------------------------------------------------------------|D|-----------------------------------------------------------------|A|-----------------------------------------------------------------|E|-5-5-5-5-5-5-5-5-1-1-1-1-1-1-1-1-2-2-2-2-2-2-2-2-3-3-3-3-4-4-4-4-|
-------------------------------------------------------|-------------------------------------------------------|-------------------------------------------------------|-------------------------------------------------5---4-|-------------------------------------------------3---2-|-5-5-5-5-5-5-5-5-1-1-1-1-1-1-1-1-2-2-2-2-2-2-2-2-------|
After the soloe|----------------------------------------|B|----------------------------------------|G|----------------------------------------|D|-2--3--4--5--6--7--8--9--10-11-12--11-9-| Not 100rightA|-0--1--2--3--4--5--6--7--8--9--10--9--7-|E|----------------------------------------|
3 Rock Hard Ride Freestandard tuning Gtr I|-12----12----10----10----|-8---8---7---7---|-12----12----10----10----||----10----10----10----10-|---6---6---6---6-|----10----10----10----10-||-------------------------|-----------------|-------------------------||-------------------------|-----------------|-------------------------||-------------------------|-----------------|-------------------------||-------------------------|-----------------|-------------------------|
|
| Gtr II|-------------------------|-----------------|-------------------------||-------------------------|-----------------|-------------------------||-------------------------|-----------------|-------------------------||-------------------------|-----------------|-------------------------||-------------------------|-----------------|-------------------------||-------------------------|-----------------|-------------------------|
|-8---8---7-------|-12----12----10----10----||---6---6---6-5---|----10----10----10----10-||---------------5-|-------------------------||-----------------|-------------------------||-----------------|-------------------------||-----------------|-------------------------|
|
| Gtr II|-----------------|-------------------------||-----------------|-------------------------||-----------------|-------------------------||-----------------|--7----------------------||-----------------|--7----------------------||-----------------|--5----------------------|
|--8----8---7---7---|-12----12----10----10----||-----6---6---6---6-|----10----10----10----10-||-------------------|-------------------------||-------------------|-------------------------||-------------------|-------------------------||-------------------|-------------------------|
|
|-------------------|-------------------------||-------------------|-------------------------||-------------------|-------------------------||-(7)---------------|--3----------------------||-(7)---------------|--3----------------------||-(5)---------------|--1----------------------|
|--8----8---7-------|-12----12----10----10----||-----6---6---6-5---|----10----10----10----10-||-----------------5-|-------------------------||-------------------|-------------------------||-------------------|-------------------------||-------------------|-------------------------|
|
|-------------------|-------------------------||-------------------|-------------------------||-------------------|-------------------------||-(3)---------------|--7----------------------||-(3)---------------|--7----------------------||-(1)---------------|--5----------------------|
|--8----8---7---7---|-12----12----10----10----||-----6---6---6---6-|----10----10----10----10-||-------------------|-------------------------||-------------------|-------------------------||-------------------|-------------------------||-------------------|-------------------------|
|
|-------------------|-------------------------||-------------------|-------------------------||-------------------|-------------------------||-(7)---------------|--3----------------------||-(7)---------------|--3----------------------||-(5)---------------|--1----------------------|
~~~~|-8---8---7-------|---------------------|-----------17----|---------------22--||---6---6---6-5---|-20b22------18p17h18-|-(18)---------20-|-(20)\------20-----||---------------5-|---------------------|-----------------|-------------------||-----------------|---------------------|-----------------|-------------------||-----------------|---------------------|-----------------|-------------------||-----------------|---------------------|-----------------|-------------------|
|
|-----------------|---------------------|-----------------|-------------------||-----------------|---------------------|-----------------|-------------------||-----------------|---------------------|-----------------|----------------9--||-5---------------|--7----------------3-|--(3)----------5-|--(5)-----------9--||-5---------------|--7----------------3-|--(3)----------5-|--(5)-----------7--||-3---------------|--5----------------1-|--(1)----------3-|--(3)--------------|
|-(22)-----------------------|-------------------||------20-20-----------------|-------------------||------------16-(16)---17-14-|-(14)--------4---5-||----------------------------|-----------7-------||----------------------------|-------------------||----------------------------|-------------------|
|
|----------------------------|-------------------||----------------------------|-------------------||--(9)-----7------5--4-----2-|--(2)--------------||--(9)-----7------5--4-----2-|--(2)----------3---||--(7)-----5------3--2-----0-|--(0)----------3---||----------------------------|---------------1---|
|-----------5-[8]-([8])-----|--5--7h8p7p5-----7h8p7p==5--||-----5-6-8-----------------|-------------8p5------------||--7------------------------|----------------------------||---------------------------|----------------------------||---------------------------|----------------------------||---------------------------|----------------------------|
|
|---------------------------|----------------------------||---------------------------|----------------------------||---------------------------|----------------------------||-(3)---------------------5-|-(5)-------------------2----||-(3)---------------------5-|-(5)-------------------2----||-(1)---------------------3-|-(3)-------------------0----|
|-----------------------|-------------------|-------------------||--8p=5-----------------|-------------------|-------------------||-------7p5-5tr4--5--4--|-----------4-(4)-5-|-5---5-5-5-4-(4)---||-----------------------|-7---7-7-7---------|-----------------7-||-----------------------|-------------------|-------------------||-----------------------|-------------------|-------------------|
|
|-----------------------|-------------------|-------------------||-----------------------|-------------------|-------------------||-----------------------|-------------------|-------------------||-(2)-------------2--5--|-7-----------------|-3-----------------||-(2)-------------2--5--|-7-----------------|-3-----------------||-(0)-------------0--3--|-5-----------------|-1-----------------|
|
| Gtr III|-----------------------|-------------------|-------------------||-----------------5-----|-----------------5-|-5---5-5-5---------||--------------------7--|-5---5-5-5-7-(7)---|-----------7-(7)-5-||-----------------------|-------------------|-------------------||-----------------------|-------------------|-------------------||-----------------------|-------------------|-------------------|
|-------------------|-----------7-8-7-|---------------7-(7)-8-||-------------------|---------9-------|-10---10-10-10---------||-----------------4-|-------9---------|-----------------------||-5---5-5-5-7-(7)---|-6---6-----------|-----------------------||-------------------|---7-------------|-----------------------||-------------------|-----------------|-----------------------|
|
|-------------------|-----------------|-----------------------||-------------------|-----------------|-----------------------||-------------------|-----------------|-----------------------||-5-----------------|-2---------------|--7--------------------||-5-----------------|-2---------------|--7--------------------||-3-----------------|-0---------------|--5--------------------|
|
|-------------------|-----------------|-----------------------||-------------------|-----------5-----|---------------------5-||-4---4-4-4-5-(5)-7-|-4---4-5-7---5-4-|--5----5--5--5-7-(7)---||-------------------|---6-------------|-----------------------||-------------------|-----------------|-----------------------||-------------------|-----------------|-----------------------|
|-8---8-8-8-7-(7)----|---------------12-16-|-17-12-------------------||-----------------10-|-8---8-8----12-------|-------13-12-13-12-------||--------------------|---------12----------|-------------------14-13-||--------------------|---------------------|-------------------------||--------------------|---------------------|-------------------------||--------------------|---------------------|-------------------------|
|
|--------------------|---------------------|-------------------------||--------------------|---------------------|-------------------------||--------------------|---------------------|-------------------------||-3------------------|-5-------------------|--2----------------------||-3------------------|-5-------------------|--2----------------------||-1------------------|-3-------------------|--0----------------------|
|
|--------------------|---------------------|-12-10-12-10-12-10--8----||-5---5-5-5----------|----------------9-12-|----------------------12-||-----------7-(7)--5-|-4---4-4--4--7-------|-------------------------||--------------------|---------------------|-------------------------||--------------------|---------------------|-------------------------||--------------------|---------------------|-------------------------|
Verse $ ~~~|-----------------------------|--------------||-------------|---------------||-----------------------------|--------------||o------------|---------------||-14p=13----------------------|--------------||-------------|---------------||--------14-------------------|--------2--5--||--7------7-5-|-(5)----2--5---||-----------15-14-15-14-12-11-|-12-----2--5--||o-7------7-5-|-(5)----2--5---||-----------------------------|--------0--3--||--5------5-3-|-(3)----0--3---|
|
|-----------------------------|--------------||-------------|---------------||-----------------------------|--------------||o------------|---------------||-----------------------------|--------------||-------------|---------------||-(2)-------------------------|--7-----2--5--||--7------7-5-|-(5)----2--5---||-(2)-------------------------|--7-----2--5--||o-7------7-5-|-(5)----2--5---||-(0)-------------------------|--5-----0--3--||--5------5-3-|-(3)----0--3---|
|
| >|-12---------8-10--8----------|--------------||-------------|---------------||--------12----------12-10--9-|-10\----------||o------------|---------------||-----------------------------|--------------||-------------|---------------||-----------------------------|--------------||-------------|---------------||-----------------------------|--------------||o------------|---------------||-----------------------------|--------------||-------------|---------------|
Gtrs I, II|-----------|---------------------|--------------|--------------||-----------|---------------------|--------------|--------------||-----------|---------------------|--------------|--------------||-7---------|-------------------7-|-(7)------7-5-|-(5)----2--5--||-7-------3-|-(3)-2-0-----------7-|-(7)------7-5-|-(5)----2--5--||-5---------|---------3-(3)-0-7-5-|-(5)------5-3-|-(3)----0--3--|
Pre-Chorus PM|-------------|--------------------||-----------------|-----------------||-------------|--------------------||-----------------|-----------------||-------------|--------------------||-5-----4-----2---|-----5---4---2---||-7-----------|--------------------||-0-0-0-0-0-0-0-0-|-0-0-0-0-0-0-0-0-||-7-----x-x-3-|-(3)-2-0-5-(5)-3-5--||-----------------|-----------------||-5-----------|--------------------||-----------------|-----------------|
PM|-----------------|-----------------|-----------------|----------------||-----------------|-----------------|-----------------|----------------||-5-----4-----2---|-----5---4---2---|-5-----4-----2---|-----5---4---2--||-0-0-0-0-0-0-0-0-|-0-0-0-0-0-0-0-0-|-3-3-3-3-3-3-3-3-|-3-3-3-3-3-3-3--||-----------------|-----------------|-----------------|----------------||-----------------|-----------------|-----------------|----------------|
To Coda|---------------------------|---------------|||---------------------------|---------------|||-5-(5)-(5)-4-(4)-(4)-2-(2)-|---------------|||-0-(0)-(0)-0-(0)-(0)-0-(0)-|-2---5-(5)--2--|||---------------------------|-2---5-(5)--2--|||---------------------------|-0---3-(3)--0--||
Chorus|----------------|-------------------|-----------------||-----5-(5)------|--------3--(3)---3-|-(3)-------------||-----5-(5)------|--------4--(4)---0-|-(0)---5-(5)-----||-7---7-(7)------|--------5--(5)---0-|-(0)---5-(5)---3-||-7---0-(0)--0-0-|-0-0-0-(0)-(0)---2-|-(2)---3-(3)---3-||-5--------------|-------------------|---------------1-|
|----------------|----------------||----------------|-----5-(5)------||----------------|-----5-(5)------||-(3)---5-(5)----|-7---7-(7)------||-(3)---5-(5)----|-7---0-(0)--0-0-||-(1)---3-(3)----|-5--------------|
1.|------------------|---------------|-------------||--------3--(3)----|---------------|-------------||--------4--(4)----|-----5-(5)-----|-------------||--------5--(5)----|-3---5-(5)--5--|-(5)---------||-0-0-0-(0)-(0)----|-3---3-(3)--5--|-(5)---------||------------------|-1----------3--|-(3)-------4-|
2.|------------------||----------------|---------------|---------------|||-----------------o||----------------|---------------|---------------|||------------------||-----5-(5)------|-----4-(4)--5--|-(5)--5--5--7--|||---------2-2--5---||-3---5-(5)------|-5---4-(4)--5--|-(5)--5--5--7--|||-----------2--5--o||-3---3-(3)------|-5---2-(2)--3--|-(3)--3--3--5--|||-(4)-0-4---0--3---||-1----------0-1-|-3-------------|---------------||
Bridge|--------------|-----------------|--------------|----------------------||--------------|-----------------|--------------|----------------------||-9--2--2------|-2---0-(0)---9-9-|-9--2--2------|-----0-(0)------------||-9--4--4------|-4---2-(2)---9-9-|-9--4--4------|-4---0-(0)------------||-7--------0-0-|-5-----------7-7-|-7--------x-x-|-5---------x-x-x-x-x--||-0--------0-0-|-------------0-0-|-0------------|----------------------|
|--------------|-----------------|--------------|-2---3-(3)--2-------|||--------------|-----------------|--------------|-3---0-(0)--3-------|||-9--2--2------|-2---0-(0)---9-9-|-9--2--2------|-2---0-(0)--2-2b3r==|||-9--4--4------|-4---2-(2)---9-9-|-9--4--4------|-0---0-(0)--0-------|||-7--------x-x-|-5-----------7-7-|-7--------x-x-|--------------------|||-0------------|-------------0-0-|-0------------|--------------------||
Guitar Solo 1 Gtr I T T T T T T|-----------------------|---------------------------||-----------------------|---------------------------||-(2)----14--(14)-2p0h2-|-12--(12)-2p0h2-9--9-2p0h2-||-----------------------|---------------------------||-----------------------|---------------------------||-----------------------|---------------------------|
|
| Gtr II|-----------------------|---------------------------||-----------------------|---------------------------||-----------------------|---------------------------||--7--------------------|--3------------------------||--7--------------------|--3------------------------||--5--------------------|--1------------------------|
|----------------------------||-1---1s3---3s5---5s8----8s==||---4-----5-----7-----10-----||----------------------------||----------------------------||----------------------------|
|
|----------------------------||----------------------------||----------------------------||-5--------------------------||-5--------------------------||-3--------------------------|
|-------------------------12-15-|-15b17r===15-15-12-------------||-10----10s12----12-13-15-------|-------------------15b17r15-13-||----12-------14----------------|-------------------------------||-------------------------------|-------------------------------||-------------------------------|-------------------------------||-------------------------------|-------------------------------|
|
|-------------------------------|-------------------------------||-------------------------------|-------------------------------||--9--------7--------5--4-------|-------------------------------||--9--------7--------5--4-----7-|-(7)---------------------------||--7--------5--------3--2-----7-|-(7)---------------------------||-----------------------------5-|-(5)---------------------------|
|-------------------|------5------------------||-15b17r13----------|-8b10---8----------------||----------14\------|----------7b9r7-7p5-7----||-------------------|-------------------------||-------------------|-------------------------||-------------------|-------------------------|
|
|-------------------|-------------------------||-------------------|-------------------------||-------------------|-------------------------||--3----------------|-5-----------------------||--3----------------|-5-----------------------||--1----------------|-3-----------------------|
|-------------------------|------------------5-|-7h8-5--0-5-5-7-0-0-7-||-------------------------|------------5-6-8---|----------------------||-------------------------|-4h5----5-7---------|----------------------||---7-7p5-----------------|-----7--------------|----------------------||---------7p5-7s5-3-5p3---|--------------------|----------------------||-----------------------5-|--------------------|----------------------|
|
|-------------------------|--------------------|----------------------||-------------------------|--------------------|----------------------||-------------------------|--------------------|----------------------||-2-----------2-----5-----|-7------------------|-3--------------------||-2-----------2-----5-----|-7------------------|-3--------------------||-0-----------0-----3-----|-5------------------|-1--------------------|
|-8-0-0-8-10-8-0-10-12-12-12-13-13-13-15-15-||-------------------------------------------||-------------------------------------------||-------------------------------------------||-------------------------------------------||-------------------------------------------|
|
|-------------------------------------------||-------------------------------------------||-------------------------------------------||-5-----------------------------------------||-5-----------------------------------------||-3-----------------------------------------|
|-15-17-17-17-19-19-19-19-20-20-19-19-22b24r22-|-22b24r22----||----------------------------------------------|-------------||----------------------------------------------|-------------||----------------------------------------------|-------------||----------------------------------------------|-------------||----------------------------------------------|-------------|
|
|----------------------------------------------|-------------||----------------------------------------------|-------------||--9-----------7-----------5-----4-------------|-------------||--9-----------7-----------5-----4-----------7-|--------7----||--7-----------5-----------3-----2-----------7-|--------7----||--------------------------------------------5-|--------5----|
|---19-19-20-(20)b22r(20)b22r20-17-17-------||-------------------------------------20b22r||-------------------------------------------||-------------------------------------------||-------------------------------------------||-------------------------------------------|
|
|-------------------------------------------||-------------------------------------------||-------------------------------------------||-3-----------------------------------------||-3-----------------------------------------||-1-----------------------------------------|
~~|----20b22---------17----------------||-20-------20--20-----20-17----------||---------------------------19b21r19-||------------------------------------||------------------------------------||------------------------------------|
|
|------------------------------------||------------------------------------||------------------------------------||--5---------------------------------||--5---------------------------------||--3---------------------------------|
Guitar Solo 2|--------------------------------17-------20-||-(20)--------------------||--------------------------20-17----20-17----||-------------------------||-(19)-(19)-17-17-19b21r19-------------------||-------------------------||--------------------------------------------||-------------------------||--------------------------------------------||-------------------------||--------------------------------------------||-------------------------|
|
|--------------------------------------------||-------------------------||--------------------------------------------||-------------------------||--------------------------------------------||-------------------------||---2----------------------------------------||---3-------------------7-||---2----------------------------------------||---3-------------------7-||---0----------------------------------------||---1-------------------5-|
|
| Gtr III|--------------------------------------------||-----------17-19-(19)-20-||--------------------------------------------||--20b22r=================||--------------------------------------------||-------------------------||--------------------------------------------||-------------------------||--------------------------------------------||-------------------------||--------------------------------------------||-------------------------|
|-----------------|----------------------------------------||-----------------|----------------------------------------||-----------------|----------------------------------------||-----------------|----------------------------------------||-----------------|----------------------------------------||-----------------|----------------------------------------|
|
|-----------------|----------------------------------------||-----------------|----------------------------------------||-----------------|-------------------------------------7--||----(7)--------5-|--(5)--------------------------------7--||----(7)--------5-|--(5)--------------------------------5--||----(5)--------3-|--(3)-----------------------------------|
|
|-20-20--------19-|-(19)b21r(19)-(19)-17-------------------||-----------------|----------------------20b22r(20)---(20)-||-----------------|----------------------------------------||-----------------|----------------------------------------||-----------------|----------------------------------------||-----------------|----------------------------------------|
|-----------------------------------------------||-----------------------------------------------||-----------------------------------------------||-----------------------------------------------||-----------------------------------------------||-----------------------------------------------|
|
|-----------------------------------------------||-----------------------------------------------||-(7)-------------------------------------------||-(7)--------------------------------------3----||-(5)--------------------------------------3----||------------------------------------------1----|
|
|-17--------------------------------------------||-----20-17-------17-20-17----17----------------||-----------19b21----------19----17-17s16-------||-----------------------------------------19-17-||-----------------------------------------------||-----------------------------------------------|
|-------------------------------|-------------------------||-------------------------------|-------------------------||-------------------------------|-------------------------||-------------------------------|-------------------------||-------------------------------|-------------------------||-------------------------------|-------------------------|
|
|-------------------------------|-------------------------||-------------------------------|-------------------------||-------------------------------|-------------------------||-(3)-----------------------7---|-(7)---------------5-----||-(3)-----------------------7---|-(7)---------------5-----||-(1)-----------------------5---|-(5)---------------3-----|
|
|-------------------------------|-------------------------||-------------------------------|-------------------------||---------------------------4b6r|==4----------------------||-19b21-(19)r(19)-(19)\---------|-----5-0-----------------||-------------------------------|---------3-2h3p2---------||-------------------------------|-----------------5-3b5r==|
|----------------------|-------------------------------||----------------------|-------------------------------||----------------------|-------------------------------||----------------------|-------------------------------||----------------------|-------------------------------||----------------------|-------------------------------|
|
|----------------------|-------------------------------||----------------------|-------------------------------||------------------7---|-(7)---------9---(9)-----------||-(5)--------------7---|-(7)---------9---(9)-------3---||-(5)--------------5---|-(5)---------7---(7)-------3---||-(3)------------------|---------------------------1---|
|
|----------------------|-------------------------------||----------------------|-------------------------------||----------------------|-------------------------------||----------------------|---------------------0h2p0---5-||--------------0-2---3-|---------0-2---3-----------7---||--3-----0-1-3---------|--0--1-3-----------------------|
|-------------------------||-------------------------||-------------------------||-------------------------||-------------------------||-------------------------|
|
|-------------------------||-------------------------||-------------------------||-(3)----------------7----||-(3)----------------7----||-(1)----------------5----|
|
|-------------------------||-------------------------||-------5-7b9r=7b9r7-5-7--||--7----------------------||-------------------------||-------------------------|
|--------------------||--------------------||--------------------||--------------------||--------------------||--------------------|
|
|--------------------||--------------------||--------------------||-(7)--------------5-||-(7)--------------5-||-(5)--------------3-|
|
|--5---------------7-||-----5-8-8-8b10r====||--------------------||--------------------||--------------------||--------------------|
|--------------------------------------|---------------------||--------------------------------------|---------------------||--------------------------------------|---------------------||--------------------------------------|---------------------||--------------------------------------|---------------------||--------------------------------------|---------------------|
|
|--------------------------------------|---------------------||--------------------------------------|---------------------||---------------------------------7----|-(7)-----------------||-(5)-----------------------------7----|-(7)--------------3--||-(5)-----------------------------5----|-(5)--------------3--||-(3)----------------------------------|------------------1--|
|
|-(7)-8p7------------------------------|---------------------||---------10-8-------------------------|---------------------||--------------9p7---------------------|---------------------||------------------10-9h10p9-10p9p7----|--7b9r7-7-(7)--------||-----------------------------------10-|---------------------||--------------------------------------|---------------------|
|----------------------------|-----------------------------||----------------------------|-----------------------------||----------------------------|-----------------------------||----------------------------|-----------------------------||----------------------------|-----------------------------||----------------------------|-----------------------------|
|
|----------------------------|-----------------------------||----------------------------|-----------------------------||----------------------------|-----------------------------||-(3)-------------------7----|--(7)----------------------5-||-(3)-------------------7----|--(7)----------------------5-||-(1)-------------------5----|--(5)----------------------3-|
|
|-----17---------------17-17-|-(17)-19-20-19b21r20-20---19-||--------17-20b22r20---------|-----------------------------||----------------------------|-----------------------------||----------------------------|-----------------------------||----------------------------|-----------------------------||----------------------------|-----------------------------|
|-----------------------------------------------------||-----------------------------------------------------||-----------------------------------------------------||-----------------------------------------------------||-----------------------------------------------------||-----------------------------------------------------|
|
|-----------------------------------------------------||-----------------------------------------------------||---------------------------------------------7-------||--(5)----------------------------------------7-------||--(5)----------------------------------------5-------||--(3)------------------------------------------------|
|
|-(19)-20-19-17-19-17----17---------------------------||---------------------20----20-18-20-17-17-18---17----||--------------------------------------------------19-||-----------------------------------------------------||-----------------------------------------------------||-----------------------------------------------------|
|---------------------------------------|||---------------------------------------|||---------------------------------------|||---------------------------------------|||---------------------------------------|||---------------------------------------||
|
|---------------------------------------|||---------------------------------------|||-(7)-----------------------------9--9--|||-(7)-----------------------------9--9--|||-(5)-----------------------------7--7--|||---------------------------------------||
|
|---------------------------------------|||---------------------------------------|||-17--16-19p16h19p16--------------------|||--------------------19-17-19b21r19-----|||---------------------------------------|||---------------------------------------||
Gtr I|-------------------|-------------------|-------------------||-------------------|-------------------|-------------------||-----------4-(4)-5-|-5---5-5-5-4-(4)---|-----------------4-||-7---7-7-7---------|-----------------7-|-5---5-5-5-7-(7)---||-------------------|-------------------|-------------------||-------------------|-------------------|-------------------|
|
| Gtr II|-------------------|-------------------|-------------------||-------------------|-------------------|-------------------||-------------------|-------------------|-------------------||-7-----------------|-3-----------------|-5-----------------||-7-----------------|-3-----------------|-5-----------------||-5-----------------|-1-----------------|-3-----------------|
|
| Gtr III|-------------------|-------------------|-------------------||-----------------5-|-5---5-5-5---------|-------------------||-5---5-5-5-7-(7)---|-----------7-(7)-5-|-4---4-4-4-5-(5)-7-||-------------------|-------------------|-------------------||-------------------|-------------------|-------------------||-------------------|-------------------|-------------------|
|-----------7-8-7-|---------------7-(7)-8---||---------9-------|-10---10-10-10-----------||-------9---------|-------------------------||-6---6-----------|-------------------------||---7-------------|-------------------------||-----------------|-------------------------|
|
|-----------------|-------------------------||-----------------|-------------------------||-----------------|-------------------------||-2---------------|--7----------------------||-2---------------|--7----------------------||-0---------------|--5----------------------|
|
|-----------------|-------------------------||-----------5-----|---------------------5---||-4---4-5-7---5-4-|--5----5--5--5-7-(7)-----||---6-------------|-------------------------||-----------------|-------------------------||-----------------|-------------------------|
|-8---8-8-8-7-(7)----|---------------12-16-||-----------------10-|-8---8-8----12-------||--------------------|---------12----------||--------------------|---------------------||--------------------|---------------------||--------------------|---------------------|
|
|--------------------|---------------------||--------------------|---------------------||--------------------|---------------------||-3------------------|-5-------------------||-3------------------|-5-------------------||-1------------------|-3-------------------|
|
|--------------------|---------------------||-5---5-5-5----------|----------------9-12-||-----------7-(7)--5-|-4---4-4--4--7-------||--------------------|---------------------||--------------------|---------------------||--------------------|---------------------|
|-17-12-------------------|-----------------------------|-------||-------13-12-13-12-------|-----------------------------|-------||-------------------14-13-|-14p=13----------------------|-------||-------------------------|--------14-------------------|-------||-------------------------|-----------15-14-15-14-12-11-|-15----||-------------------------|-----------------------------|-------|
|
|-------------------------|-----------------------------|-------||-------------------------|-----------------------------|-------||-------------------------|-----------------------------|-------||--2----
Please rate this tab:
x1.0