Judas Priest - Reckless tab version 1

 Reckless                                     

 Judas Priest
album : turbo
 Glenn Tipton and kk downing
thins song was made in guitar pro 
transcribed by ju.da.s

riff 1
Intro
      PM PM              PM                 PM          PM PM                
         
D#||-----------------------|-----------------------|----------------------|A#||-----------------------|-----------------------|--------1------0------|F#||--------5------2-------|--5------2-------0--2--|--------0------0------|C#||--------7S-----2-------|--7------2-------2--2--|----------------------|G#||--0--0---------------0-|--------------0--------|----------------------|D#||-----------------------|-----------------------|--1--1----------------|
PM PM PM PM PM PM ----------------------|--------1------0------|--------0------0------| (x4)----------------------|----------------------|--3--3----------------|
verse 1 and 2 Intro |--------------------------|--------------------------||--------------------------|--------------------------||--------------------------|--------------------------||--2--------------------3--|--------------------------||--0--0--0--0--0--0--0--0--|--0--0--0--0--0--0--0--0--||--------------------------|--------------------------|
PM PM PM PM PM PM PM PM PM PM PM PM PM PM PM PM --------------------------|-----------------------|-------------------------|--------------------------|-----------------------|-------------------------|--------------------------|-----------------------|-------------------------|--2--------------------2--|-----------------------|--2--------------------3-|--3--3--3--3--3--3--3--3--|--3--3--3--3--2--------|--0--0--0--0--0--0--0--0-|--------------------------|-----------------3~-----|------------------------|
PM PM PM PM PM PM PM PM PM PM PM PM PM PM --------------------------|--------------------------|----------------------|--------------------------|--------------------------|----------------------|--------------------------|--------------------------|----------------------|--------------------------|--2-----------------------|----------------------|--0--0--0--0--0--0--0--0--|--3--3--3--3--3--3--3-----|--------3-----2-------|--------------------------|-----------------------3--|--L--3--3--3--3-------|
riff 3pre chorus ----------------|------------------|-------------------|----------------|------------------|-------------------|-------------5--|--=---------------|-------------------|--2----------5--|--=---------------|--2-------------3--|--0-------------|------------------|--0-------------3--|----------------|------------------|-------------------|
--------------------|----------------|-------------------|--------------------|----------------|-------------------|--------------------|-------------5--|--------7----------|--L--------5--------|--2----------5--|--------7----------|--L--------5--------|--0-------------|-------------------|--------------------|----------------|-------------------|
PM PM PM PM PM PM PM PM PM PM PM PM PM PM PM PM --------------------------|--------------------------|--------------------------|--------------------------|--------------------------|--------------------------|--------------------------|--------------------------|--------------------------|--------------------------|--1--1--1--1--1--1--1--1--|--3--3--3--3--3--3--3--3--|
riff 4pre solo /brideg --------------------|---------------------------------------------|--------1------0----|---------------------------------------------|--------0------0----|---------------------------------------------|--------------------|--5----7--7--------2--5----7--7--2--5--7--7--|--------------------|--3----5--5--------0--3----5--5--0--3--5--5--|--3--3--------------|---------------------------------------------|
-----------------------------------------------|-----------------------------------------------|-----------------------------5--5-----5--5-----|-----------------------------5--5-----5--5-----|--5--5--7--7--------------0--------0--------0--|--3--3--5--5-----------------------------------|
---------------------------------------------|---------------------------------------------|---------------------------------------------|--5----7--7--------2--5----7--7--2--5--7--7--|--3----5--5--------0--3----5--5--0--3--5--5--|---------------------------------------------|
-------------------------------------------|-------------------------------------------|----------3------0----x--3------0----------|----------3------0----x--3------0----------|-----5-------------------------------------|--5--3-------------------------------0--1--|
----------------------------------------------|----------------------------------------------|----------3------0----x--3------0-------------|----------3------0----x--3------0-------------|-----5----------------------------------------|--2--3----------------------------------------|
solo riff 5
glen solos is awesome but i its very dificult sorry -------------------|-------------------|----------------------|-------------------|-------------------|----------------------|-------------------|-------------------|----------------------|--3----------------|--2----------------|--2-------------------|--0----------------|--3----------------|--3--------2----------|-------------------|-------------------|--------------3~------|
-------------------|-------------------|----------------|-------------------|-------------------|----------------|-------------------|-------------------|----------------|--2----------------|--3----------------|--2-------------|--0----------------|--0----------------|--3----------5--|-------------------|-------------------|-------------3--|
|-------------------|-------------------|----------------||-------------------|-------------------|----------------||-------------------|-------------------|----------------||--2----------------|--3----------------|--2-------------||--0----------------|--0----------------|--3-------------||-------------------|-------------------|----------------|
----------------------|-------------------|-------------------|----------------------|-------------------|-------------------|----------------------|-------------------|-------------------|--2-------------------|--2----------------|--3----------------|--3--------2----------|--0----------------|--0----------------|--------------3~------|-------------------|-------------------|
-------------------|-------------------|-------------------|-------------------|--5-------------2--|--3-------------0--|
Songstructure: Riff 1(4 times) Riff 2(2 times) prechorus Riff 3(1 times) Chorus Riff 1(2 times) Riff 2(2 times) prechorus Riff 3(1 times) Chorus Riff 1(2 times) brideg riff 4(1 times) solo riff 5 1 times prechorus riff 3(1 times) chorus riff (fade out)
Tap to rate this tab
 
# A B C D E F G H I J K L M N O P Q R S T U V W X Y Z