Judas Priest - A Touch Of Evil tab






Keyboreds intro

repeat alot ahah|------------------------------------------||------------------------------------------||--9-99-9/7\9----9-99-12-7-9---------------||--9-99-9/7\9----9-99-12-7-9---------------||--7-77-7/5\7----7-77-10-5-7---------------||------------------------------------------|
ok thr last part goes sonthing like this i cant really hear it
|------------------------------|-------------------||------------------------------|-------------------||-12/14--14-14-14---12--14-----|--7/9--9-99-9/7\9--||-12/14--14-14-14---12--14-----|--7/9--9-99-9/7\9--||-10/12--12-12-12---10--12-----|--5/7--7-77-7/5\7--||------------------------------|-------------------|
around were rob says i taste the fear he they play this
|----------------------------------------------||----------------------------------------------||--14/16--16-16-16---------16/17--17-17-17-----||--14/16--16-16-16---------16/17--17-17-17-----||--12/14--14-14-14---------14/15--15-15-15-----||----------------------------------------------|
|-----------------------------------||--7/9--9-99-9/7\9------------------||--7/9--9-99-9/7\9------------------||--5/7--7-77-7/5\7------0--2--0-----||--------------------------------3--|
|--------------------------------------------------------||--------------------------------------------------------||--------------------7/9---------------------------------||--4/5--5-5-5--5/7---5/7------4/5--5-5-5-----------------||--4/5--5-5-5--5/7------------4/5--5-5-5-----6--7--8--9--||--2/3--3-3-3--3/5------------2/3--3-3-3-----4--5--6--7--|
Chorus i out sum lyrics so u dudes wouldent get confused here ahahahah
In the night come to me you know i want your touch of slide to 8 dip the whammy bar or bend like i did |-------------------|---------------|--------------------------||-------------------|---------------|--------------------------||--9----------------|--5/------/10--|---9------(9)------(9)----||--9----------------|--5/------/10--|---9------(9)------(9)----||--7---------9/-----|--3/------/8---|---7------(7)------(7)----||------------7/-----|---------------|--------------------------|
E--------vil In the Night Please set me Free (a tout le monde)
ahahahahahaha slide again|-------------|-----------------------|-----------------------||-------------|-----------------------|-----------------------||--5-----7----|--9--------------------|--5/----------/10------||--5-----7----|--9--------------------|--5/----------/10------||--3-----5----|--7----------------9/--|--3/----------/8-------||-------------|-------------------7/--|-----------------------|
I cant resist your Touch Of E-----vil|--------------------------------|----------------||--------------------------------|----------------||----9---------------------------|--5-------7-----||----9---------------------------|--5-------7-----||----7---------------------------|--3-------5-----||--------------------------------|----------------|
repeat the verses again then the chorus the heres the interlude
|------------------------------|--------------------------------||------------------------------|--------------------------------||--------4------4------4h5-4---|-----5-----5----4-----2p0-2p0---||------------------------------|--3-3--3-3----3---5-------------||------------------------------|--------------------------------||-----0------0-----------------|--------------------------------|
|------------------------------|--------------------------------||------------------------------|--------------------------------||--------4------4------4h5-4---|-----5-----5----4-----2p0-2p0---||------------------------------|--3-3--3-3----3---5-------------||------------------------------|--------------------------------||-----0------0-----------------|--------------------------------|
now repeat this|------------------------------||------------------------------||--------4------4------4h5-4---||------------------------------||------------------------------||-----0------0-----------------|
solo?bend down slowly|--------|---------||--------|---------||-ah~----|---------||--9-----|---------||--------|--7------||--------|---------|
main solo part now!!!!!|----------------------------------------------------------||-----------------------------------------5--------3-------||---------------------2/4----2--(2/)--------------------5--||--2-----4---5------------------------2--------------------||-----------------3----------------------------------------||----------------------------------------------------------|
bend or use ur bar ahaha|-------------------------------------------------------------------||--ah~--------------------------------------------------------------||--4-------2---2-(2)--(2)--(2)\----------------------2/4---2--(2/)--||----------------\/---\/----\/-----2---------4---5------------------||-----------------------------------------------------3-------------||-------------------------------------------------------------------|
|--------------------------------------------------------||---------------------------------------bend or bar------||--------------------------------------4-----------------||--2----4----5-----4--4h5h7---5h4------------------------||-----------------------------------7--------------------||--------------------------------------------------------|
|--------12--------------------------------------------------||------------------------------------------------------------||-------------15----19------2---4---4------5-2-4----2---2----||--14--------------------5------------------------5---5------||------------------------------------------------------------||------------------------------------------------------------|
|------------------------------------------------17bend----17bendful----||--13-15--13--12--------13p12-----12------------------------------------||---------------14-------------14-----12--11----------------------------||-----------------------------------------------------------------------||-----------------------------------------------------------------------||-----------------------------------------------------------------------|
|--15--12-----12---------------------------------||----------15----15--12--------------------------||-------------------------15-14--12-14---14-12/--||------------------------------------------------||------------------------------------------------||------------------------------------------------|
|-------------22bend-----------------------------------6bend---------||-------------------------------ah~-----5--5-5-----------------------||--(12/)--4/------------0---4---4---------------4p3-0------------0---||-------------------------2---2-----------------------2--------------||--------------------------------------------------------------------||--------------------------------------------------------------------|
|--11h12--15p12p11----11-12--15p12p11-----11h12-15-12p11-11h12h15--||------------------13-----------------15---------------------------||------------------------------------------------------------------||------------------------------------------------------------------||------------------------------------------------------------------||------------------------------------------------------------------|
|--12p11----12p11-------------------------------------------------------||-------15-------15--12--10h11------------------------------------------||--------------------------------12p11p10h11--12p11p10------10----------||--------------------------------------------------------12-----10--11--||-----------------------------------------------------------------------||-----------------------------------------------------------------------|
|--12--12-14---15-------17--||--------------------19-----||---------------------------||---------------------------||---------------------------||---------------------------|
|-------------------------------12---15-12-12-15-19-15--------------------||--11-12--------------------12----------------------------17--------------||--------14-----12-------------------------------------------16-15--------||-------------14---14----14----------------------------------------17-----||----------------------------------------------------------------------19-||-------------------------------------------------------------------------|
|--10bend-----||-------------||-------------||-------------||-------------||-------------|
t|--12h14h15--14p12----12h14h15p14p12----12h14-19--14p12-------||-------------------15----------------15----------------15----||-------------------------------------------------------------||-------------------------------------------------------------||-------------------------------------------------------------||-------------------------------------------------------------|
t t|--12h14h15p14-19---12h14-19-----12h14-12h14h15--||------------------------------------------------||------------------------------------------------||------------------------------------------------||------------------------------------------------||------------------------------------------------|
|--14p12----12--15p14p12----12h14-15p14p12----12h14--15p14p12---||---------15-------------15----------------15-------------------||---------------------------------------------------------------||---------------------------------------------------------------||---------------------------------------------------------------||---------------------------------------------------------------|
|------------------------------------------------------------||--15p14--12h14h15p14--15p12h15------------------15p12h15----||---------------------------------14p12h14p12----------------||------------------------------------------------------------||------------------------------------------------------------||------------------------------------------------------------|
now heres arousing with the since of disiare
|--19------------||----------------||----------------||----------------||----------------||----------------|
possesing soul|--20----------|--22bend-------||--------------|---------------||--------------|---------------||--------------|---------------||--------------|---------------||--------------|---------------|
fire|--17-------15-------|--14---------||--------------------|-------------||--------------------|-------------||--------------------|-------------||--------------------|-------------||--------------------|-------------|
reapet the verses then chourus the ur done!!!!!!!!!!!!!
Tap to rate this tab
 
# A B C D E F G H I J K L M N O P Q R S T U V W X Y Z