Judas Priest - Judas Rising tab

|--------0-----------0-----------0-----------0-----------0-||--0-5-7---7-5-0-5-7---7-5-0-5-7---7-5-0-5-7---7-5-0-7-8---||----------------------------------------------------------||----------------------------------------------------------||----------------------------------------------------------||----------------------------------------------------------|
|-----------0-----------0-----------0------------0-------------0-||-8-7-0-7-8---8-7-0-7-8---8-7-0-7-8---8-7-0-8-10---10-8-0-8-10---||----------------------------------------------------------------||----------------------------------------------------------------||----------------------------------------------------------------||----------------------------------------------------------------|
|-------------0-------------0-------------||-10-8-0-8-10---10-8-0-8-10---10-8-0------||-----------------------------------------||-----------------------------------------||-----------------------------------------||-----------------------------------------|
|--------0-----------0-----------0-----------0-----------0-||--0-5-7---7-5-0-5-7---7-5-0-5-7---7-5-0-5-7---7-5-0-7-8---||----------------------------------------------------------||----------------------------------------------------------||----------------------------------------------------------||----------------------------------------------------------|
|-----------0-----------0-----------0------------0-------------0-||-8-7-0-7-8---8-7-0-7-8---8-7-0-7-8---8-7-0-8-10---10-8-0-8-10---||----------------------------------------------------------------||----------------------------------------------------------------||----------------------------------------------------------------||----------------------------------------------------------------|
|-------------0-------------0--------------0---------------0--||-10-8-0-8-10---10-8-0-10-8---10-8-0-10-12---12-10-0-10-12----||-------------------------------------------------------------||-------------------------------------------------------------||-------------------------------------------------------------||-------------------------------------------------------------|
|---------------0---------------0---------------0---------------0--||-12-10-0-10-12---12-10-0-10-12---12-10-0-12-15---15-12-0-12-15----||------------------------------------------------------------------||------------------------------------------------------------------||------------------------------------------------------------------||------------------------------------------------------------------|
|---------------0---------------15---------------15---------------15-||-15-12-0-12-15---15-12-0-15-17----17-15-0-15-17----17-15-0-15-17----||--------------------------------------------------------------------||--------------------------------------------------------------------||--------------------------------------------------------------------||--------------------------------------------------------------------|
|----------12~--------------------||--17-15-0-15b~-------------------||---------------------------------||---------------------------------||---------------------------------||---------------------------------|
This is Played quietly behin the intro|----------------------------------------------------------------------||----------------------------------------------------------------------||----------------------------------------------------------------------||7~-7-9-10-9~--9-10-12--14-12-10~--------------------------------------||---------------------------------10-9-7-10-7--7-9-10-9--9-10-12-10~---||----------------------------------------------------------------------|
|--------------------------------------------||--------------------------------------------||--------------------------------------------||--------------------------------------------||-10-12-14-15-14-12-10-9-7-10-7~-------------||--------------------------------------------|
|---------------------------------------------------------||---------------------------------------------------------||---------------------------------------------------------||-7/9999--7/9999-7/9999-------7/9999--7/9999--------------||-5/7777--5/7777-5/7777-5-4-2-5/7777--5/7777-5-4-2-5-4-2--||-----------------------3-2-0----------------3-2-0-3-2-0--|
|---------------------------------------------------------------||---------------------------------------------------------------||---------------------------------------------------------------||-7/9999--7/9999--7/9999----------7/9999--7/9999--7/9999--------||-5/7777--5/7777--5/7777--5-4-2---5/7777--5/7777--5/7777-5-4-2--||-------------------------3-2-0--------------------------3-2-0--|
|-----------------------------------------------------||-----------------------------------------------------||-----------------------------------------------------||-7-7-7-7-7-7-7-7-7-7--------7/9-9-9-9-9-9-9-9--------||-5-5-5-5-5-5-5-5-5-5--5-4-2-5/7-7-7-7-7-7-7-7-5-4-2--||----------------------3-2-0-------------------3-2-0--|
|--------------------------------------------------------------||--------------------------------------------------------------||--------------------------------------------------------------||-7/9999--7/9999--7/9999----------7/9999--7/9999--7/9999-------||-5/7777--5/7777--5/7777---5-4-2--5/7777--5/7777--5/7777-5-4-2-||--------------------------3-2-0-------------------------3-2-0-|
|----------------------------------------------------------------||----------------------------------------------------------------||----------------------------------------------------------------||-55555555-44444444--------------------------------------7-7-7-7-||-33333333-22222222-5555-2222-------0022332200---5-5-5-5-5-5-5-5-||-------------------3333-0000-002233-------------3-3-3-3---------|
|-----------------------||-----------------------||-----------------------||---------7-7-7-7-------||-5-5-5-5-5-5-5-5-------||-3-3-3-3---------------|
|-------------------------------------------------------------||-------------------------------------------------------------||-------------------------------------------------------------||-7/9999--7/9999--7/9999----------7/9999-7/9999---------------||-5/7777--5/7777--5/7777--5-4-2---5/7777-5/7777-5-4-2-5-4-0---||-------------------------3-2-0-----------------3-2-0-3-2-0---|
|-------------------------------------------------------------||----------15b~-----------------------------------------||------------------------14---------------------||-------------------------------------------------------------||-------------------------------------------------------------||-------------------------------------------------------------|
|-------------------------------------------------------------||-------------------------------------------------------------||-------------------------------------------------------------||-7/9999--7/9999--7/9999--------7/9999--7/9999--7/9999--------||-5/7777--5/7777--5/7777-5-4-2--5/7777--5/7777--5/7777-5-4-2--||------------------------3-2-0-------------------------3-2-0--|
|-------------------------------------------------------------||-------------------------------------------------------------||-------------------------------------------------------------||-7/9999--7/9999--7/9999--------7/9999--7/9999--7/9999--------||-5/7777--5/7777--5/7777-5-4-2--5/7777--5/7777--5/7777-5-4-2--||------------------------3-2-0-------------------------3-2-0--|
|---------------------------------------------------------||---------------------------------------------------------||---------------------------------------------------------||-7-7-7-7-7-7-7-7-7-7--------7/9-9-9-9-9-9-9-9-9-9--------||-5-5-5-5-5-5-5-5-5-5--5-4-2-5/7-7-7-7-7-7-7-7-7-7--5-4-2-||----------------------3-2-0---0-0-0-0-0-0-0-0-0-0--3-2-0-|
|---------------------------------------||---------------------------------------||---------------------------------------||-7/9999--7/9999--7/9999----------------||-5/7777--5/7777--5/7777-5--4--2--------||------------------------3--2--0--------|
|
|---------------------------------------||---------------------------------------||---------------------------------------||---------------------------------------||-9h1010-9h1010--9h1010-12-10-9-9h10----||---------------------------------------|
|---------------------------------------||---------------------------------------||---------------------------------------||-7/9999--7/9999--7/9999----------------||-5/7777--5/7777--5/7777-5--4--2--------||------------------------3--2--0--------|
|
|---------------------------------------||---------------------------------------||---------------------------------------||---------------------------------------||-9h1010-9h1010--9h1010-12-10-9-9h10----||---------------------------------------|
|------------------------------------------------||------------------------------------------------||------------------------------------------------||-55555555-44444444------------------------------||-33333333-22222222-5555-2222-------0022332200---||-------------------3333-0000-002233-------------|
|---------------------------------------------||---------------------------------------------||---------------------------------------------||----------------------77---77---77---77------||-55---55---55----55---55---55---55---55------||-33---33---33----33--------------------------|
|-----------------------------------------||-----------------------------------------||-----------------------------------------||---------------------77---77---77---77---||-55---55---55---55---55---55---55---55---||-33---33---33---33-----------------------|
|---------------------------------------------------------||---------------------------------------------------------||---------------------------------------------------------|| 7/9999--7/9999--7/9999-------7/9999-7/9999-7/9999-------||-5/7777--5/7777--5/7777-5-4-3-5/7777-5/7777-5/7777-5-4-2-||------------------------3-2-0----------------------3-2-0-|
|---------------------------------------------------------||--------b15~----------------------||-----------------------------------------------14~r14p12--|--------------------------------------------------------14|---------------------------------------------------------||---------------------------------------------------------|
Solo I cant Figure Out; Heres The Rythym for it though|-------------------------------------------------------------------------||-------------------------------------------------------------------------||-------------------------------------------------------------------------||-4-----5-------4-----5-------4-----5-------4-----5-4-3-5-4-2-------------||-2-----3-------2-----3-------2-----3-------2-----3-2-0-3-2-0-5-4-2-5-4-2-||-------------------------------------------------------------3-2-0-3-2-0-|
|---------------------------------------||---------------------------------------||---------------------------------------||-7/9999--7/9999--7/9999----------------||-5/7777--5/7777--5/7777-5--4--2--------||------------------------3--2--0--------|
|---------------------------------------||---------------------------------------||---------------------------------------||-7/9999--7/9999--7/9999----------------||-5/7777--5/7777--5/7777-5--4--2--------||------------------------3--2--0--------|
|-----------------------------------------------------||-----------------------------------------------------||-----------------------------------------------------||-7-7-7-7-7-7-7-7-7-7--------7/9-9-9-9-9-9-9-9--------||-5-5-5-5-5-5-5-5-5-5--5-4-2-5/7-7-7-7-7-7-7-7-5-4-2--||----------------------3-2-0-------------------3-2-0--|
|---------------------------------------||---------------------------------------||---------------------------------------||-7/9999--7/9999--7/9999----------------||-5/7777--5/7777--5/7777-5--4--2--------||------------------------3--2--0--------|
|---------------------------------------||---------------------------------------||---------------------------------------||-7/9999--7/9999--7/9999----------------||-5/7777--5/7777--5/7777-5--4--2--------||------------------------3--2--0--------|
|----------------------------------------------||----------------------------------------------||----------------------------------------------||-55555555-44444444----------------------------||-33333333-22222222-5555-2222-------0022332200-||-------------------3333-0000-002233-----------|
|-----------------------------------------||-----------------------------------------||-----------------------------------------||---------------------77---77---77---77---||-55---55---55---55---55---55---55---55---||-33---33---33---33-----------------------|
|-----------------------------------------||-----------------------------------------||-----------------------------------------||---------------------77---77---77---77---||-55---55---55---55---55---55---55---55---||-33---33---33---33-----------------------|
|---------------------------------------------------------||---------------------------------------------------------||---------------------------------------------------------|| 7/9999--7/9999--7/9999-------7/9999-7/9999--------------||-5/7777--5/7777--5/7777-5-4-3-5/7777-5/7777-5-4-2-5-4-2--||------------------------3-2-0---------------3-2-0-3-2-0--|
|---------------------------------------------------------||--------------------------------------------||--------------------------------------------|| 7/9999--7/9999--7/9999-------7/9999-7/9999-||-5/7777--5/7777--5/7777-5-4-3-5/7777-5/7777-||------------------------3-2-0---------------|
|------------------------------||------------------------------||------------------------------||-5-4-2-5-4-2--------------7/9-||-3-2-0-3-2-0-5-4-2-5-4-2--5/7-||-------------3-2-0-3-2-0------|
Tap to rate this tab
 
# A B C D E F G H I J K L M N O P Q R S T U V W X Y Z