Judas Priest - You Got Another Thing Comin tab

Band: Judas Priest
Song: You've Got Another Thing Comin'
Album: Screaming For Vengeance
tuning: Standard

Intro 1-Guitar-I-II PM|------------------------------------------------|||-----------------|-----------------|-----------------|||-----------------|-----------------|-----------------|||-----------------|-----------------|-----------------|||-----------------|-----------------|-----------------|||-----------------|-----------------|-----------------|||-2-2-2-2-2-2-2-2-|-2-2-2-2-2-2-2-2-|-2-2-2-2-2-2-2-2-|
PM|-----------||-----------------|||-----------------|||-----------------|||-----------------|||-----------------|||-2-2-2-2-2-2-2-2-||
Intro 2-Guitar-I PM|-----| PM|---||-------------|----------|----------------||-------------|----------|----------------||-2---2-------|---2-2---2|-4-2---2--------||-2-4-2-------|---2-2-4-2|-4-2-4-2--------||---4-0-------|-------4-0|-2---4-0--------||-------2-2-2-|-2-----2--|---------2-2-2-2|
|------------|----------||------------|----------||-2-----2-4--|-2-----2-4||-2-4-4-2-4--|-2-4-4-2-4||---4-4-0-2--|---4-4-0-2||---2-2-----2|---2-2----|
PM|-----| PM|---||-------------|----------|----------------||-------------|----------|----------------||-2---2-------|---2-2---2|-4-2---2--------||-2-4-2-------|---2-2-4-2|-4-2-4-2--------||---4-0-------|-------4-0|-2---4-0--------||-------2-2-2-|-2-----2--|---------2-2-2-2|
|----------|||----------|||-2-----2-4|||-2-4-4-2-4|||---4-4-0-2|||---2-2----||
1.||---|---|---|-----------||||o--|-4-|---|---------7o||||-9-|-4-|---|-2---2---7-||||-9-|-4-|-4-|-2-4-2-4-5-||||o7-|-2-|-4-|----------o||||---|---|-2-|-----------||
2.|-----------|||-----------|||-2---2-----|||-2-4-2-4-4-|||---------4-|||---------2-||
Guitar-II PM|-----------------------------------------------| 1.||-----------------|-----------------|-----------------|-----------||||o----------------|-----------------|-----------------|---------7o||||-----------------|-----------------|-----------------|-2---2---7-||||-----------------|-----------------|-----------------|-2-4-2-4-5-||||o----------------|-----------------|-----------------|----------o||||-2-2-2-2-2-2-2-2-|-2-2-2-2-2-2-2-2-|-2-2-2-2-2-2-2-2-|-----------||
2.|-----------|||-----------|||-2---2-----|||-2-4-2-4-4-|||---------4-|||---------2-||
Verse 1-Guitar-I PM|------------------------------| 4x||------|-------------|-----------------|-----------------||||o-----|-------------|-----------------|----------------o||||------|-------------|-----------------|-----------------||||-4---4|-2-4-4---2-4-|-----------------|-----------------||||o4---4|-2-4-4---2-4-|-----------------|----------------o||||-2-x-2|-2-2-2-x-2-2-|-2-2-2-2-2-2-2-2-|-2-2-2-2-2-2-2-2-||
Guitar-II PM------------------------------------------------|||-----------------|-----------------|-----------------|||o----------------|-----------------|-----------------|||-----------------|-----------------|-----------------|||-----------------|-----------------|-----------------|||o----------------|-----------------|-----------------|||-2-2-2-2-2-2-2-2-|-2-2-2-2-2-2-2-2-|-2-2-2-2-2-2-2-2-|
PM|-----------| 4x|-----------------|||----------------o|||-----------------|||-----------------|||----------------o|||-2-2-2-2-2-2-2-2-||
Chorus 1-Guitar-I-II||----|----|----|----|||----|----|----|----|||---9|-4--|---9|-4-6|||-4-9|-4-4|-4-9|-4-6|||-4-7|-2-4|-4-7|-2-4|||-2--|---2|-2--|----|
PM|----| PM|---||------------|----------|----------------||------------|----------|----------------||-2---2------|---2-2---2|-4-2---2--------||-2-4-2------|---2-2-4-2|-4-2-4-2--------||---4-0------|-------4-0|-2---4-0--------||-------2-2-2|-2-----2--|---------2-2-2-2|
|------------|||------------|||-2-----2-4--|||-2-4-4-2-4-4|||---4-4-0-2-4|||---2-2-----2||
Verse 2-Guitar-I PM|-----------------------------| 4x||------|-------------|-----------------|-----------------||||o-----|-------------|-----------------|----------------o||||------|-------------|-----------------|-----------------||||-4---4|-2-4-4---2-4-|-----------------|-----------------||||o4---4|-2-4-4---2-4-|-----------------|----------------o||||-2-x-2|-2-2-2-x-2-2-|-2-2-2-2-2-2-2-2-|-2-2-2-2-2-2-2-2-||
Guitar-II PM|-----------------------------------------------|||-----------------|-----------------|-----------------|||o----------------|-----------------|-----------------|||-----------------|-----------------|-----------------|||-----------------|-----------------|-----------------|||o----------------|-----------------|-----------------|||-2-2-2-2-2-2-2-2-|-2-2-2-2-2-2-2-2-|-2-2-2-2-2-2-2-2-|
PM|-----------| 4x|-----------------|||----------------o|||-----------------|||-----------------|||----------------o|||-2-2-2-2-2-2-2-2-||
Chorus 2-Guitar-I-II||----|----|----|----|||----|----|----|----|||---9|-4--|---9|-4-6|||-4-9|-4-4|-4-9|-4-6|||-4-7|-2-4|-4-7|-2-4|||-2--|---2|-2--|----|
PM|----| PM|---||-------------|----------|----------------||-------------|----------|----------------||-2---2-------|---2-2---2|-4-2---2--------||-2-4-2-------|---2-2-4-2|-4-2-4-2--------||---4-0-------|-------4-0|-2---4-0--------||-------2-2-2-|-2-----2--|---------2-2-2-2|
|------------|----------||------------|----------||-2-----2-4--|-2-----2-4||-2-4-4-2-4--|-2-4-4-2-4||---4-4-0-2--|---4-4-0-2||---2-2-----2|---2-2----|
PM|----| PM|---||-------------|----------|----------------||-------------|----------|----------------||-2---2-------|---2-2---2|-4-2---2--------||-2-4-2-------|---2-2-4-2|-4-2-4-2--------||---4-0-------|-------4-0|-2---4-0--------||-------2-2-2-|-2-----2--|---------2-2-2-2|
|----------|||----------|||-2-----2-4|||-2-4-4-2-4|||---4-4-0-2|||---2-2----||
Bridge-Guitar-I|--|--|----|--------|----|-------||--|--|----|--------|----|-------||--|--|-4b6|(b6)r4p2|-4b6|-(b6)r4||--|--|----|--------|----|-------||--|--|----|--------|----|-------||--|--|----|--------|----|-------|
Guitar-II|-2|-2|--|--|-2|-2|--|--|||-3|-3|--|--|-3|-3|--|--|||-2|-2|-2|--|-2|-2|-2|-6|||-4|-4|-2|-4|-4|-4|-2|-6|||-2|-0|-0|-4|-2|-0|-0|-4|||--|--|--|-2|--|--|--|--||
Solo-Guitar-I|-22b24r22-22b24r22-22b24r22-22b24r22---------------14------------------||-------------------------------------22-19/-----14----14-17p14---------||--------------------------------------------\16----------------16b18r16||-----------------------------------------------------------------------||-----------------------------------------------------------------------||-----------------------------------------------------------------------|
|----------------------------------------------------------||-14----14----------14----------14-------------------------||----17----16b18r16----16b18r16----17-16-14----14-17b18r17-||-------------------------------------------16-------------||----------------------------------------------------------||----------------------------------------------------------|
|----------------------------------------------------------||-------------14-------------------------------------------||-16-14----17----17-16-14b----------14---------------------||-------16-----------------16-14-16----14h16p14----14------||-----------------------------------------------16----16-15||----------------------------------------------------------|
|---------------------------------------------------------||----------------------------------------17b19r17-17b19r17||---------------------------------------------------------||-16p14-------------14------------------------------------||-------16-15-14-------16-15-14-12/14-/16-----------------||----------------17---------------------------------------|
PM||---------------------------------------------------------||---17b19r17-14----14-------------12b14r12-10----10-9-9p8-||---------------16----16-14-------------------11----------||---------------------------16----------------------------||------------------------------14-------------------------||-0-------------------------------------------------------|
|-------------------------------------------14-17b19br17-14||-----7--------7-------7-10--------17b19r17----------------||-9-9---9b11r9----9b10------9b11r9-------------------------||----------------------------------------------------------||----------------------------------------------------------||----------------------------------------------------------|
|-17-14----14----------------------------14-------------14-17||-------17----17-14-17-14----14-------14----14-17p14-14------||-------------------------17----17-16------------------------||------------------------------------------------------------||------------------------------------------------------------||------------------------------------------------------------|
|-14----------14-----------14------------------------||----------------14-14-17b----14-17-14----14----14---||----16b18r16--------------------------16----14----16||----------------------------------------------------||----------------------------------------------------||----------------------------------------------------|
Guitar-II PM|----| PM|---|||-------------|----------|----------------|||-------------|----------|----------------|||-2---2-------|---2-2---2|-4-2---2--------|||-2-4-2-------|---2-2-4-2|-4-2-4-2--------|||---4-0-------|-------4-0|-2---4-0--------|||-------2-2-2-|-2-----2--|---------2-2-2-2|
|------------|----------||------------|----------||-2-----2-4--|-2-----2-4||-2-4-4-2-4--|-2-4-4-2-4||---4-4-0-2--|---4-4-0-2||---2-2-----2|---2-2----|
PM|----| PM|---||-------------|----------|----------------||-------------|----------|----------------||-2---2-------|---2-2---2|-4-2---2--------||-2-4-2-------|---2-2-4-2|-4-2-4-2--------||---4-0-------|-------4-0|-2---4-0--------||-------2-2-2-|-2-----2--|---------2-2-2-2|
4x|----------||----------||-2-----2-4||-2-4-4-2-4||---4-4-0-2||---2-2----|
|----|----|----|----||----|----|----|----||---9|-4--|---9|-4-6||-4-9|-4-4|-4-9|-4-6||-4-7|-2-4|-4-7|-2-4||-2--|---2|-2--|----|
|--------------|||--------------|||-2-2---2---4--|||-2-2---2---4-4|||-------------4|||-----2---2---2||
Interlude-Guitar-I PM|----| PM|---|||------------|----------|----------------|||o-----------|----------|----------------|||-2---2------|---2-2---2|-4-2---2--------|||-2-4-2------|---2-2-4-2|-4-2-4-2--------|||o--4-0------|-------4-0|-2---4-0--------|||-------2-2-2|-2-----2--|---------2-2-2-2|
|-----------|||----------o|||-2-----2-4-|||-2-4-4-2-4-|||---4-4-0-2o|||---2-2-----||
|--|--|---|---||o-|--|---|--o||-9|-4|---|---||-9|-4|-4-|-4-||o7|-2|-4-|-4o||--|--|-2-|-2-|
Tap to rate this tab
 
# A B C D E F G H I J K L M N O P Q R S T U V W X Y Z