Judas Priest - Before The Dawn tab

clean guitar
very cool song and great solo



                                                                            
E||------------------|--------------------------|--------------------------|B||------------------|-----0-----0-----0-----0--|-----1-----1--0--1--------|G||------------------|--------0-----------0-----|--------2-----------2--0--|D||------------------|--------------2-----------|--------------------------|A||------------------|--------------------------|--0-----------------------|E||------------------|--0-----------------------|--------------------------|
--------------2-----------|--------------------------|-----3-----3-----3-----0--|-----0-----0--4--0-----0--|--------2-----------2-----|--------2-----------2-----|--0-----------------------|--------------------------|--------------------------|--2-----------------------|--------------------------|--------------------------|
--------------------------|--------------------------|-----0-----0-----0-----0--|-----1-----1--0--1--------|--------0-----------0-----|--------2-----------2--0--|--------------2-----------|--------------------------|--------------------------|--0-----------------------|--0-----------------------|--------------------------|
--------------2--0--------|--0-----------------------|-----0-----0--------4--0--|-----0-----0-----0-----0--|--------2-----------------|--------0-----------0-----|--------------------------|--------------2-----------|--2-----------------------|--------------------------|--------------------------|--0-----------------------|
--------------------------|--------------------------|-----0-----0-----0-----0--|-----1-----1--0--1--------|--------0-----------0-----|--------2-----------2--0--|--------------2-----------|--------------------------|--------------------------|--0-----------------------|--0-----------------------|--------------------------|
--------------2-----------|--------------------------|-----3-----3-----3-----0--|-----0-----0--4--0-----0--|--------2-----------2-----|--------2-----------2-----|--0-----------------------|--------------------------|--------------------------|--2-----------------------|--------------------------|--------------------------|
--------------------------|--------------------------|-----0-----0-----0-----0--|-----1-----1--0--1--------|--------0-----------0-----|--------2-----------2--0--|--------------2-----------|--------------------------|--------------------------|--0-----------------------|--0-----------------------|--------------------------|
--------------2--0--------|--0-----------------------|-----0-----0--------4--0--|-----0-----0-----0-----0--|--------2-----------------|--------0-----------0-----|--------------------------|--------------2-----------|--2-----------------------|--------------------------|--------------------------|--0-----------------------|
--------------------------|--------------------------|-----0-----0-----0-----0--|-----1-----1--0--1--------|--------0-----------0-----|--------2-----------2--0--|--------------2-----------|--------------------------|--------------------------|--0-----------------------|--0-----------------------|--------------------------|
--------------2-----------|--------------------------|-----3-----3-----3-----3--|-----0-----0--4--0-----0--|--------2-----------2-----|--------2-----------2-----|--0-----------------------|--------------------------|--------------------------|--2-----------------------|--------------------------|--------------------------|
--------------------------|--------------------------|-----0-----0-----0-----0--|-----1-----1--0--1--------|--------0-----------0-----|--------2-----------2--0--|--------------2-----------|--------------------------|--------------------------|--0-----------------------|--0-----------------------|--------------------------|
--------------2--0--------|--0-----------------------|-----0-----0--------4--0--|-----0-----0-----0-----0--|--------2-----------------|--------0-----------0-----|--------------------------|--------------2-----------|--2-----------------------|--------------------------|--------------------------|--0-----------------------|
--0-----------------------|---------------8--------8--|-----0-----0-----0-----0--|---------8--------8--------|--------0-----------0-----|------9-----9--------9-----|--------------2-----------|--10-----------------------|--------------------------|---------------------------|--0-----------------------|---------------------------|
------------------10----------10--|--------7-----10--7-----10--|----------12----------12----------|-----9-----9---------9------|------12------12----------12------|----------------------------|----------------------------------|----------------------------|--10------------------------------|--7-------------------------|----------------------------------|----------------------------|
------------------12----------12--|---------------8--------8--|----------13----------13----------|---------8--------8--------|------14------14----------14------|------9-----9--------9-----|----------------------------------|--10-----------------------|--12------------------------------|---------------------------|----------------------------------|---------------------------|
--------------------------|--------------2-----------|--3-----0-----3--0--------|--------3--1-----3--1-----|-----0-----0--------0-----|-----2-----------------2--|-----------------------0--|--0-----------------------|--------------------------|--------------------------|--3-----------------------|--------------------------|
--------------2-----------|--------------------------|-----3-----1-----3-----1--|--------------1--------1--|--------2-----------2-----|--------0--------0--------|--0-----------------------|-----2-----2--------2-----|--------------------------|--3-----------------------|--------------------------|--------------------------|
--------------------------|--------------------------|--------0-----3--0-----3--|--------0-----3--0-----3--|-----0-----0--------0-----|-----1-----1--------1-----|--------------------------|--------------------------|--------------------------|--------------------------|--3-----------------------|--0-----------------------|
--------------0--------0--|--------------0--------0--|--------1--------1--------|--------1--------1--------|-----2-----2--------2-----|-----2-----2--------2-----|--------------------------|--------------------------|--0-----------------------|--0-----------------------|--------------------------|--------------------------|
--------0-----0--------0--|--------------2-----------|-----------------1--------|-----0--3--0-----3--0-----|-----0-----0--------0-----|--------------------------|--------------------------|-----------------------4--|--3-----------------------|--2-----------------------|--------------------------|--------------------------|
--------------2-----------|--------------0-----------|-----0--3--0-----3--0-----|--------0--------0-----0--|--------------------------|-----------0--------0-----|-----------------------4--|-----2--------------------|--2-----------------------|--------------------------|--------------------------|--0-----------------------|
--------------0-----------|--------------------------|--------0--------0-----0--|--------------1--------1--|-----0-----0--------0-----|--------0--------0--------|--------------------------|-----2-----2--------2-----|--------------------------|--3-----------------------|--0-----------------------|--------------------------|
--------------2-----------|--------------0--------0--|--------3--------3-----3--|--------1--------1--------|-----2-----2--------2-----|-----2-----2--------2-----|--------------------------|--------------------------|--2-----------------------|--0-----------------------|--------------------------|--------------------------|
--------------0--------0--|--------------------------|--------1--------1--------|--------------1--------1--|-----2-----2--------2-----|--------0--------0--------|--------------------------|-----2-----2--------2-----|--0-----------------------|--3-----------------------|--------------------------|--------------------------|
--------------2-----------|--------------0--------0--|--------3--------3-----3--|--------1--------1--------|-----2-----2--------2-----|-----2-----2--------2-----|--------------------------|--------------------------|--2-----------------------|--0-----------------------|--------------------------|--------------------------|
--------------0--------0--|--------------------------|--------1--------1--------|--------------1--------1--|-----2-----2--------2-----|--------0--------0--------|--------------------------|-----2-----2--------2-----|--0-----------------------|--3-----------------------|--------------------------|--------------------------|
--------------2-----------|--------------0--------0--|--------3--------3-----3--|--------1--------1--------|-----2-----2--------2-----|-----2-----2--------2-----|--------------------------|--------------------------|--2-----------------------|--0-----------------------|--------------------------|--------------------------|
--------------0--------0--|--------0-----0--------0--|--------1--------1--------|-----------------1--------|-----2-----2--------2-----|-----0-----0--------0-----|--------------------------|--------------------------|--0-----------------------|--3-----------------------|--------------------------|--------------------------|
--------------2-----------|--------------0-----------|-----0--3--0-----3--0-----|--------0--------0-----0--|--------------------------|-----0-----0--------0-----|-----------------------4--|--------------------------|--2-----------------------|--------------------------|--------------------------|--0-----------------------|
---------------8--------8--|------------------10----------10--|---------8--------8--------|----------12----------12----------|------9-----9--------9-----|------12------12----------12------|--10-----------------------|----------------------------------|---------------------------|--10------------------------------|---------------------------|----------------------------------|
--------7-----10--7-----10--|------------------12----------12--|-----9-----9---------9------|----------13----------13----------|----------------------------|------14------14----------14------|----------------------------|----------------------------------|--7-------------------------|--12------------------------------|----------------------------|----------------------------------|
---------------8--------8--|--------------------------|---------8--------8--------|--3-----0-----3--0--------|------9-----9--------9-----|-----0-----0--------0-----|--10-----------------------|-----------------------0--|---------------------------|--------------------------|---------------------------|--3-----------------------|
--------------2-----------|--------------2-----------|--------3--1-----3--1-----|-----3-----1-----3-----1--|-----2-----------------2--|--------2-----------2-----|--0-----------------------|--0-----------------------|--------------------------|--------------------------|--------------------------|--------------------------|
--------------------------|--------------------------|--------------1--------1--|--------0-----3--0-----3--|--------0--------0--------|-----0-----0--------0-----|-----2-----2--------2-----|--------------------------|--3-----------------------|--------------------------|--------------------------|--3-----------------------|
--------------------------|--------------0--------0--|--------0-----3--0-----3--|--------1--------1--------|-----1-----1--------1-----|-----2-----2--------2-----|--------------------------|--------------------------|--------------------------|--0-----------------------|--0-----------------------|--------------------------|
--------------0--------0--|--------0-----0--------0--|--------1--------1--------|-----------------1--------|-----2-----2--------2-----|-----0-----0--------0-----|--------------------------|--------------------------|--0-----------------------|--3-----------------------|--------------------------|--------------------------|
--------------2-----------|--------------2-----------|-----0--3--0-----3--0-----|-----0--3--0-----3--0-----|--------------------------|--------------------------|-----------------------4--|-----------------------4--|--2-----------------------|--2-----------------------|--------------------------|--------------------------|
--------------------------|--------------------------|-----0-----0-----0-----0--|-----1-----1--0--1--------|--------0-----------0-----|--------2-----------2--0--|--------------2-----------|--------------------------|--------------------------|--0-----------------------|--0-----------------------|--------------------------|
--------------2-----------|--------------------------|-----3-----3-----3-----3--|-----0-----0--4--0-----0--|--------2-----------2-----|--------2-----------2-----|--0-----------------------|--------------------------|--------------------------|--2-----------------------|--------------------------|--------------------------|
--------------------------|--------------------------|-----0-----0-----0-----0--|-----1-----1--0--1--------|--------0-----------0-----|--------2-----------2--0--|--------------2-----------|--------------------------|--------------------------|--0-----------------------|--0-----------------------|--------------------------|
--------------------------|-------------------|------------------||-----0-----0-----0--------|-------------------|------------------||--------2-----2-----0-----|-------------------|------------------||-----------------------4--|--2----------------|------------------||--2-----------------------|-------------------|------------------||--------------------------|-------------------|------------------||
Tap to rate this tab
 
# A B C D E F G H I J K L M N O P Q R S T U V W X Y Z