Juliana Theory - Something Isnt Right Here tab

Put a capo on the 2nd fret. This tab is based on the capo

oooh ooooh oooooooooooooh--------0-------------0--------------0----------------------------|-----------3-------------3--------------3-------1----0------------|-----0-------------0--------------0----------------0--------------|--2-------------0-------------------------------------------------|--------------------------------3-----------3---------------------|------------------------------------------------------------------|
oooh ooooh oooooooooooooh--------0-------------0--------------0----------------------------|-----------3-------------3--------------3-------1----0------------|-----0-------------0--------------0----------------0--------------|--2-------------0-------------------------------------------------|--------------------------------3-----------3---------------------|------------------------------------------------------------------|Put a capo on the 2nd fret. This tab is based on the capo
oooh ooooh oooooooooooooh--------0-------------0--------------0----------------------------|-----------3-------------3--------------3-------1----0------------|-----0-------------0--------------0----------------0--------------|--2-------------0-------------------------------------------------|--------------------------------3-----------3---------------------|------------------------------------------------------------------|
oooh ooooh oooooooooooooh--------0-------------0--------------0----------------------------|-----------3-------------3--------------3-------1----0------------|-----0-------------0--------------0----------------0--------------|--2-------------0-------------------------------------------------|--------------------------------3-----------3---------------------|------------------------------------------------------------------|
something isnt right here--------0-------------0--------------0-----------0-------|-----------3-------------3--------------3-----------3----|-----0-------------0--------------0-----------0----------|--2-------------0----------------------------------------|--------------------------------3-----------3------------|---------------------------------------------------------|
you've gone and left me on the ground----------------------------------------------------------|---------3-----------3-------------3----------------------|------0-----0-----0----0-------0----0---------------------|-------------------------------0--------------------------|--0-------------0-----------------------------------------|----------------------------------------------------------|
Strumming Not Shown
--3---3---3--------|--3---3---3--------|--0---0---2--------|--2---2---0--------|--2---3------------|--0----------------|
--3---3---3--------|--3---3---3--------|--0---0---2--------|--2---2---0--------|--2---3------------|--0----------------|
--3------3---3--3-----3-2----|--3--3--3---3---3----3-3-----|--0--2--0---2---0----2-2-----|--0--0--2---0---2----0-0-----|--2--0--2--------3-----------|--3--2--0--------------------|
--------0-------------0--------------0----------------------------|-----------3-------------3--------------3-------1----0------------|-----0-------------0--------------0----------------0--------------|--2-------------0-------------------------------------------------|--------------------------------3-----------3---------------------|------------------------------------------------------------------|
--------0-------------0--------------0----------------------------|-----------3-------------3--------------3-------1----0------------|-----0-------------0--------------0----------------0--------------|--2-------------0-------------------------------------------------|--------------------------------3-----------3---------------------|------------------------------------------------------------------|
--------0-------------0--------------0-----------0------|-----------3-------------3--------------3-----------3---|-----0-------------0--------------0-----------0---------|--2-------------0---------------------------------------|--------------------------------3-----------3-----------|--------------------------------------------------------|
----------------------------------------------------------|---------3-----------3-------------3----------------------|------0-----0-----0----0-------0----0---------------------|-------------------------------0--------------------------|--0-------------0-----------------------------------------|----------------------------------------------------------|
--3---3---3--------|--3---3---3--------|--0---0---2--------|--2---2---0--------|--2---3------------|--0----------------|
--3------3---3--3-----3-2----|--3--3--3---3---3----3-3-----|--0--2--0---2---0----2-2-----|--0--0--2---0---2----0-0-----|--2--0--2--------3-----------|--3--2--0--------------------|
--3---3---3--------|--3---3---3--------|--0---0---2--------|--2---2---0--------|--2---3------------|--0----------------|
--3------3---3--3-----3-2----|--3--3--3---3---3----3-3-----|--0--2--0---2---0----2-2-----|--0--0--2---0---2----0-0-----|--2--0--2--------3-----------|--3--2--0--------------------|
--------0-------------0--------------0----------------------------|-----------3-------------3--------------3-------1----0------------|-----0-------------0--------------0----------------0--------------|--2-------------0-------------------------------------------------|--------------------------------3-----------3---------------------|------------------------------------------------------------------|
--------0-------------0--------------0----------------------------|-----------3-------------3--------------3-------1----0------------|-----0-------------0--------------0----------------0--------------|--2-------------0-------------------------------------------------|--------------------------------3-----------3---------------------|------------------------------------------------------------------|
--------0-------------0--------------0----------------------------|-----------3-------------3--------------3-------1----0------------|-----0-------------0--------------0----------------0--------------|--2-------------0-------------------------------------------------|--------------------------------3-----------3---------------------|------------------------------------------------------------------|
--------0-------------0--------------0----------------------------|-----------3-------------3--------------3-------1----0------------|-----0-------------0--------------0----------------0--------------|--2-------------0-------------------------------------------------|--------------------------------3-----------3---------------------|------------------------------------------------------------------|--------0-------------0--------------0-----------0----------------|-----------3-------------3--------------3-----------3-------------|-----0-------------0--------------0-----------0-------------------|--2-------------0-------------------------------------------------|--------------------------------3-----------3---------------------|------------------------------------------------------------------|
you've gone and left me on the ground----------------------------------------------------------|---------3-----------3-------------3----------------------|------0-----0-----0----0-------0----0---------------------|-------------------------------0--------------------------|--0-------------0-----------------------------------------|----------------------------------------------------------|
Strumming Not Shown
--3---3---3--------|--3---3---3--------|--0---0---2--------|--2---2---0--------|--2---3------------|--0----------------|
--3---3---3--------|--3---3---3--------|--0---0---2--------|--2---2---0--------|--2---3------------|--0----------------|
--3------3---3--3-----3-2----|--3--3--3---3---3----3-3-----|--0--2--0---2---0----2-2-----|--0--0--2---0---2----0-0-----|--2--0--2--------3-----------|--3--2--0--------------------|
--------0-------------0--------------0----------------------------|-----------3-------------3--------------3-------1----0------------|-----0-------------0--------------0----------------0--------------|--2-------------0-------------------------------------------------|--------------------------------3-----------3---------------------|------------------------------------------------------------------|
--------0-------------0--------------0----------------------------|-----------3-------------3--------------3-------1----0------------|-----0-------------0--------------0----------------0--------------|--2-------------0-------------------------------------------------|--------------------------------3-----------3---------------------|------------------------------------------------------------------|
--------0-------------0--------------0-----------0------|-----------3-------------3--------------3-----------3---|-----0-------------0--------------0-----------0---------|--2-------------0---------------------------------------|--------------------------------3-----------3-----------|--------------------------------------------------------|
----------------------------------------------------------|---------3-----------3-------------3----------------------|------0-----0-----0----0-------0----0---------------------|-------------------------------0--------------------------|--0-------------0-----------------------------------------|----------------------------------------------------------|
--3---3---3--------|--3---3---3--------|--0---0---2--------|--2---2---0--------|--2---3------------|--0----------------|
--3------3---3--3-----3-2----|--3--3--3---3---3----3-3-----|--0--2--0---2---0----2-2-----|--0--0--2---0---2----0-0-----|--2--0--2--------3-----------|--3--2--0--------------------|
--3---3---3--------|--3---3---3--------|--0---0---2--------|--2---2---0--------|--2---3------------|--0----------------|
--3------3---3--3-----3-2----|--3--3--3---3---3----3-3-----|--0--2--0---2---0----2-2-----|--0--0--2---0---2----0-0-----|--2--0--2--------3-----------|--3--2--0--------------------|
--------0-------------0--------------0----------------------------|-----------3-------------3--------------3-------1----0------------|-----0-------------0--------------0----------------0--------------|--2-------------0-------------------------------------------------|--------------------------------3-----------3---------------------|------------------------------------------------------------------|
--------0-------------0--------------0----------------------------|-----------3-------------3--------------3-------1----0------------|-----0-------------0--------------0----------------0--------------|--2-------------0-------------------------------------------------|--------------------------------3-----------3---------------------|------------------------------------------------------------------|
--------0-------------0--------------0----------------------------|-----------3-------------3--------------3-------1----0------------|-----0-------------0--------------0----------------0--------------|--2-------------0-------------------------------------------------|--------------------------------3-----------3---------------------|------------------------------------------------------------------|
--------0-------------0--------------0----------------------------|-----------3-------------3--------------3-------1----0------------|-----0-------------0--------------0----------------0--------------|--2-------------0-------------------------------------------------|--------------------------------3-----------3---------------------|------------------------------------------------------------------|
Tap to rate this tab
 
# A B C D E F G H I J K L M N O P Q R S T U V W X Y Z