Justin King – August Train tab

This is Justin King August Train tab (I own nothing, I only created this tab by
ear.) Its based off this version here: http://www.youtube.com/watch?v=rHlz0Tpyx5Y
Tuning: DADGAD



|--------7----------2-----------0-------------------4-----||-------7-7--------2-2---------4-4-------4s7-------7-7s9--||------7----------2-----------2------2------------4-------||----11----------6-----------4--------4--4s7-----7--------||---------------------------------------------------------||--9-----------4-----------0-------------------4----------|
|-----------7-------------------2-------------------2--------2--------------||--------7h9-7---------------2h4-2------------------------------------------||--------7-------------------2------------2-----2--------2-----2------2-----||--------7-------------------2---2--------2h4p2-2-----2--2h4---4h5p2--2h4p2-||---------------------------------------------------------------------------||--7-9-9-----------9s2-2h4-4-----2-----0----------0----0--------------------|
---------------2--------------2---------2---------2--|-----------------------2---2h4-2-----2h4-4p2---------|-2----2-----2---------2----2---2----2---------2------|-2----2h4p2-2---2----2-----2---2---2-------------2---|------------------4-5---5-4-----2-0------------------|---0----------0--------------------------------------|
|------------2-----------2-2h4-2-2---2-2---------4s7-6-4h6p4s2--||-----2---2h4-2-----2h4----------2h4-2-2--2---------------------||----2----2---2----2-----------------------2--------------------||---2-----2---2---2---------------------------------------------||--5---5-4-----2-0---------------------5------5-4---------------||---------------------------------------------------------------|
|--2--------2---------2----2-------2-2-----2-----------||--2--2--2h4-4p2--2-----2h4-2---2----2-2---2--------2--||--2---2-2------2-------2-----2------2--2--2-------2---||--2-----2--------------2----------------2-2------2----||--0-----0--------5-----4-------2----2-----2-----------||------------------------------------------2---2-2-----|
|--7---7-7-6-4h6p4-----4-------------------------------------------||--7---7----------7--4--4---4-5-5h7--7----7-7-4-4s2p0----2h4-2--2--||--6---6-------------4---4-----------6----6--------------2----2----||--------------------4----4----------4----4-------------2-------2--||------------------------------------5----5------------------------||--4---4-------------7-----6---------------------------4--------2--|
|--7---7-7---6--4------4-------------------||--7---7----------7--4--4---4-5-5h7--7-7s9-||--6---6-------------4---4-----------6-----||--------------------4----4----------4-----||------------------------------------5-----||--4---4-------------7-----6---------------|
7-9-9h11p9p7-9-9--------------------2---2----------|-----------------7h9s=-----2h4-2--2-----2-2--------|---------------------------2----2----------2-------|--------------------------2-------2--2--2---2------|---------------------------------------------------|-----------------------2h4--------2-----2----2--2--|
After all that you repeat the whole thing and the 2nd guitar kicks in, in the beginning...
This part is in harmonics|------------------------||------------------------||--16-14-13--------------||-----------14-----------||--------------14-12-11--||------------------------|
|-------------------------------------------9h11-11s12--11-9-------------||-----------------------------------------12----------------12-9--7s9s7--||--9---9-9-6-6s4-4s6---4-4s6----------9-11-------------------------------||---------------------------------9s11-----------------------------------||------------------------------------------------------------------------||------------------------------------------------------------------------|
|-----------------14---14------14-------14--------------14-------14------||--9----11----12--14h16---14---16--14h16--16p14-------16----14h16--14----||------------------------------14--------------14---14---------------14--||------------------------------------------------------------------------||------------------------------------------------------------------------||------------------------------------------------------------------------|
|------14-14h16-14-14----14--14--||----16---16----16-14h16-14--14--||--14------------------------14--||--------------------------------||--------------------------------||--------------------------------|
--s19-18-16h18p16-14--14--14---14--------14--|----------------------16--14h16--16p14---14--|----------------------14--------------14-14--|---------------------------------------------|---------------------------------------------|---------------------------------------------|
|--14---14---------14--14------------||--14h16--16p14----14--14--12s11-11--||--------------14--14--14------------||------------------------------------||------------------------------------||------------------------------------|
|--11---11-11-9--------------------||--12---12------12-11-12-----12s14-||--9----9--------------------------||----------------------------------||----------------------------------||----------------------------------|
-11-12-14--14--14-14-11-------11--11-11---------------|------------------------14-12-----------14-12--12s14--|------------------------------------------------------|------------------------------------------------------|------------------------------------------------------|------------------------------------------------------|
|--11---11-11-9------------------11-12s14-14----------11---11---9----||--12---12------12-11-12---12-14----------------------12---12---11b--||--9----9---------------------------------------------9----9----9----||--------------------------------------------------------------------||--------------------------------------------------------------------||--------------------------------------------------------------------|
This is the ending|--------7----------2-----------0-------------------4-----||-------7-7--------2-2---------4-4-------4s7-------7-7s9--||------7----------2-----------2------2------------4-------||----11----------6-----------4--------4--4s7-----7--------||---------------------------------------------------------||--9-----------4-----------0-------------------4----------|
|-----------7-------------------2-------------------2--------2--------------||--------7h9-7---------------2h4-2------------------------------------------||--------7-------------------2------------2-----2--------2-----2------2-----||--------7-------------------2---2--------2h4p2-2-----2--2h4---4h5p2--2h4p2-||---------------------------------------------------------------------------||--7-9-9-----------9s2-2h4-4-----2-----0----------0----0--------------------|
---------------2------------------------------2--------2-------6--|-----------------------2--------2-----------2--2------2-2-----2---|-2----2-----2---------2-2-----2---2-------2-----2----2---2---2----|-2----2h4p2-2---2----2---2--2-------2---2--------2--2-----2-2-----|------------------4-5-----4---------4-2------------0-------0------|---0----------0---------------------------------------------------|
Please rate this tab:
x1.0