Kalashnikov – Peace Is Dead tab

Peace Is Dead tab by Kalashnikov


|-------------------------------||-------------------------------||-------------------------------| (5x)|--7-7-7-7-7--------------------||--7-7-7-7-7--------------------||--5-5-5-5-5--------------------|
|-------------------------------||-------------------------------||-------------------------------| |-------------------------------||-------------------------------||--5-5-6-4/5--------------------|
|-------------------------------||---------------7-5-------------||--------------------7-6--------||--7-7-7-7-7--------------------||--7-7-7-7-7--------------------||--5-5-5-5-5--------------------|
|-------------------------------||-------------------------------||-------------------------------||--7-7-7-7-7--------------------||--7-7-7-7-7--------------------||--5-5-5-5-5---5-5-6-4/5--------|
|-------------------------------||-------------------------------||---------------8---------------||--7-7-7-7-7----8---7-----------||--7-7-7-7-7----6---7-----------||--5-5-5-5-5--------5-----------|
|-------------------------------||-------------------------------||-------------------------------| (4x)|---7-x-8-x-5-x-7-x-7-----------||-------------------------------||-------------------------------|
|-------------------------------||-------------------------------| (7x)|--x-x-8------------------------| |--x-x-8------------------------||--x-x-6------------------------||-------------------------------|
|-------------------------------||-------------------------------||-------------------------------| (4x)|---7-x-8-x-5-x-7-x-7-----------||-------------------------------||-------------------------------|
|-------------------------------||-------------------------------| (7x)|--x-x-8------------------------| |--x-x-8------------------------||--x-x-6------------------------||-------------------------------|
|-------------------------------||-------------------------------||-------------------------------| (5x)|--7-7-7-7-7--------------------||--7-7-7-7-7--------------------||--5-5-5-5-5--------------------|
|-------------------------------||-------------------------------||-------------------------------| |-------------------------------||-------------------------------||--5-5-6-4/5--------------------|
|-------------------------------||---------------7-5-------------||--------------------7-6--------||--7-7-7-7-7--------------------||--7-7-7-7-7--------------------||--5-5-5-5-5--------------------|
|-------------------------------||-------------------------------||-------------------------------||--7-7-7-7-7--------------------||--7-7-7-7-7--------------------||--5-5-5-5-5---5-5-6-4/5--------|
|-------------------------------||-------------------------------||---------------8---------------||--7-7-7-7-7----8---7-----------||--7-7-7-7-7----6---7-----------||--5-5-5-5-5--------5-----------|
|-------------------------------||-------------------------------||-------------------------------| (4x)|---7-x-8-x-5-x-7-x-7-----------||-------------------------------||-------------------------------|
|-------------------------------||-------------------------------| (7x)|--x-x-8------------------------| |--x-x-8------------------------||--x-x-6------------------------||-------------------------------|
|-------------------------------||-------------------------------||-------------------------------| (4x)|---7-x-8-x-5-x-7-x-7-----------||-------------------------------||-------------------------------|
|-------------------------------||-------------------------------| |---8--8-8-8-8-8-8--------------| |---8--8-8-8-8-8-8--------------||---6--6-6-6-6-6-6--------------||-------------------------------|
|-------------------------------||-------------------------------||-------------------------------| (5x)|--7-7-7-7-7--------------------||--7-7-7-7-7--------------------||--5-5-5-5-5--------------------|
|-------------------------------||-------------------------------||-------------------------------| |-------------------------------||-------------------------------||--5-5-6-4/5--------------------|
|-------------------------------||---------------7-5-------------||--------------------7-6--------||--7-7-7-7-7--------------------||--7-7-7-7-7--------------------||--5-5-5-5-5--------------------|
|-------------------------------||-------------------------------||-------------------------------||--7-7-7-7-7--------------------||--7-7-7-7-7--------------------||--5-5-5-5-5---5-5-6-4/5--------|
|-------------------------------||-------------------------------||---------------8---------------||--7-7-7-7-7----8---7-----------||--7-7-7-7-7----6---7-----------||--5-5-5-5-5--------5-----------|
REPEAT 4x----------------------------| | |/ |/ | |
|-------------------------------| ||-------------------------------| | |-------------------------------| <|----7-8-5-7-7------------------| ||-------------------------------| ||-------------------------------| |
|
|-------------------------------| ||-------------------------------| ||--7-8-10----7-8-10-------------| <|--7-8-10----7-8-10-------------| ||--5-6-8-----5-6-8--------------| ||-------------------------------| |
|-------------------------------||-------------------------------||-------------------------------| |--7-7-7-7-7-7-7-7--------------| ((LET RING))|--7-7-7-7-7-7-7-7--------------||--5-5-5-5-5-5-5-5--------------|
Please rate this tab:
x1.0