Kalmah - Heritance Of Berija tab

Kalmah - Heritance of Berija (ver 1.0)

from 'Swamplord'

Transcribed by: Nick Beato (entity@cfl.rr.com)

tune down 1/2 step (Eb Ab Db Gb Bb Eb)

part 1

gtr1--------------------------------------------------------------------------------------------------------------------------------------------------------------------------7------------------------------------------------------7-----7-----------10---10-9---12-----10-------10---10-9------9---------0-0-0----0------0----0-0----0-0-0----0------10------------
gtr2---------------------------------------------------------------------------------------------------------------------------------------------------------------------------------------------------------------------------------------------2-2-2-----------------------2-2-2--------------------------0-0-0-----------------------0-0-0-------------------------
gtr1---------------------------------------------------------------------------------------------------------------------------------------------------------------------------------------------------------------------------------------------------10---10-9---12-----10-------10---10---9-10----10-9---0-0-0----0------0----0-0----0-0-0----0----8------10-------
gtr2---------------------------------------------------------------------------------------------------------------------------------------------------------------------------------------------------------------------------------------------2-2-2-----------------------2-2-2-----------9-10----10-9---0-0-0-----------------------0-0-0---------8------10-------
part 2
gtr1--------------------------------------------------------------------------------------------------------------------------------------------------------------------------7------------------------------------------------------7-----7-----------10---10-9---12-----10-------10---10-9------9---------0-0-0----0------0----0-0----0-0-0----0------10------------
gtr2 (first note not played first time)-ph-----------------------------------------------10--------8~~-0-8--0-8--7-0-8--10-8-7-ph--0-8--0-8--7-8-10----10-7-------------------------------9~~------------------------------------------------------------------------------------------------------------------------------------------------------------------------------------------------------------
gtr1---------------------------------------------------------------------------------------------------------------------------------------------------------------------------------------------------------------------------------------------------10---10-9---12-----10-------10---10---9-10----10-9---0-0-0----0------0----0-0----0-0-0----0----8------10-------
gtr2------------------------------------------------------------ph--0-8--0-8--7-0-8--10-8-7-ph--0-8--0-8----7-8-----8--7---9~~-------------------------9~~-----------5------7-----------------------------------------------------------------------------------------------------------------------------------------------------------------------------------------
part 2 end fill for guitar 1
------------------------------------------------------------------------------------------------------------------------------10---10-10-----12-------0-0-0----0----8------10-------
part 3
gtr 1 (this is a pita to hear clearly. it sounds close)-------------------------------------------------------------------------------------------------------------------------------------------------------9-----7-----7-----------5-----------7-------------7-----5-----5-----------3-----------5---------------0000--0000--0000000000--0000000000--0000000000-
-------------------------------------------------------------------------------------------------------------------------------------------------------9-----7-----7-----------5-------------------------7-----5-----5-----------3-----------2--2--2--2------0000--0000--0000000000--00000000000--0--0--0---
gtr2 (trem pick this pattern)
-12-14-15-12-14-15-14-15-17-14-15-17------------------------------------------------------------------------------------------------------------------------------------------------------------------------------------------
-19-17-15-17-15-14-19-17-15-20-19-17------------------------------------------------------------------------------------------------------------------------------------------------------------------------------------------
-12-14-15-12-14-15-14-15-17-14-15-17------------------------------------------------------------------------------------------------------------------------------------------------------------------------------------------
-19-17-15-17-15----ph--------------------------------19-17~~--17-17-17~~------------------------------------------------------------------------------------------------------------------------------------------------------
part 3 alternate ending
-12-14-15-12-14-15-14-15-17-14-15-17------------------------------------------------------------------------------------------------------------------------------------------------------------------------------------------
-19-15----17-------ph-----------------------17----19-15-17~~------------------------------------------------------------------------------------------------------------------------------------------------------------------
part 4 (keyboard arranged for guitar)
-------------------------------------------------------------------------------------------------------4-----4-----2-----4----------------------------5-----5-----4-----5-------5-----5-----7-----7--7-----7-----5-----7-------7-----7-----9-----9----------------------------8-----8-----10----10----
part 5 (with keyboard playing part 4 until harmony comes in)
gtr1 (play to rhythm of song when drum come in)---------------------------------------------------------------------------------------------------9-----------7-----9-----5-----------7------------9-----------7-----9-----5-----------7------------7-----------5-----7-----3-----------5------------------------------------------------------------
gtr2-----------------------------------------------------------------------------------------------------------------9~~----9-11-12-11-9-12-11-9-9~~-----9-11-12-11---------------9---------------------------10------------12~~--------------------------------------------------------------------------------------------------------------------
-------------------------------------------------------------------------------------------------------------------9~~----9-11-12-11-9-14-12-11-9~~-----9-11-12-11---------------9----------------------------10------------12~~----------------------------------------------------------------------------------------------------------------------
gtr3 (harmony)
---------------------------------------------------------------------------------------------------------------------------12~~---12-14-16-14-12-16-14-12-12~~----12-14-16-14-12-11~~~-------12------------------------------14-----------------------------------------------------------------------------------------------------------------------------------------------
---------------------------------------------------------------------------------------------------------------------------12~~---12-14-16-14-12-17-16-14-12~~----12-14-16-14-12-11~~~-------12------------------------------14-----------------------------------------------------------------------------------------------------------------------------------------------
part 6 i think the emphasized notes may be harmonized too, but this is close...
gtr1------------------------------------------------------------------------------------------------------------------------------------------------------------------------------------------------------------------------------------7-----9-------------10-----9-----7-----9"---7"---5"---7"-----7"-----------777---777---7-777----777---777---777----------------------------------------------------------------------------------------------
gtr2-------------------------------------------------------------------------------------------------------------------------------------------------------------------------------------------------------------------------5"---------7-----9-------------10-----9-----7----------------------------------------777---777---7-777----777---777---777-------------------------------------------------------------------------7"---5"---3"---5"----
part 7 (keyboard arranged for guitar) might be a bit innaccurate...
-----------------------------------------------------------------------------------7-10-8-7------8-12-10-8-------10-13-12-10-----------------------------------------------------------------------9----9------7-------------9--------------10---------------7-10---10---10-9------------10-------------12--------------------------------------------------------------------------------
--------------------------------------------------------------------------12-15-13-12---------10-13-12-10------8-12-10-8-----7-10-9-7------------------------------------------------------------------------12----------------10------------------9-------------7-----------14----------------12------------------10-------------9-------------------------------------------------------------------------------
part 8 (with part 7)--------------------------------------------------------------------------------------------------------------------4----------------2---0---5---3---2---3---5---0----0---2---3---5-------5---3---2---
part 8 variation
----------------------------------------------------------------------------------------------------------------------------------------------------------------------------------------------------------------------------4-4--------------------------2-2----0-0----5-5----3-----5-----2-2222-3-3----5-5----5-5-----0-0000-2-2222-3-3333-5-555-3-333--------5-5555-3-3333-7-7777-
solo
---------------------------------------------------------------------------------------------------------------------------------------------------------------------------------------------------------------------------------------------------------7---7-10-9-7-9---9-12-10-9-10---10-14-12-10-12---12-15-14-12----0------------0--------------0----------------0-------------
---------------------------------------------------------------------------------------------------------------------------------------------------------------------------------------------------------16-17-19--14---14-17-16-14-16---16-19-17-16-17---17-20-19-17-16-17-19------------------------------------------------------------------------------------0----------------0----------------0-------------------------------
------------------------------------------------------------20---------17-0-17-20-19-17-19-0-19-22-20-19-20-0-20-24-22-20-22-0-22----24-22------------------------------------------------------------------------------------------------------------------------------------------------------------------------------------------------------------------------------------------------------------------------------------------
-22bf-------22~~~---------19-20-----------------------------------------------------------22-------19----19-20-19----------------19--------------------------------------21----------21-19-19-19-21---------------------------------------------------------------------------------------------------------------------------------------------------------------------------------------------------------------
w/ keyboard doubling (guessing on the second half...)
-------19-22-20-19-------------------------19-22-20-19----------------------20-------------------19-22-20-19----20-------------------19-22-20-19-21-------------------20-------------21-------------------20-------------------------------21----------------------------------21---------------------------------------------------------------------------------------------------------------------------------------------------------------
----------------------------------------------------------------------------19-20-22-20-19-------19-20-19-------19-20-22-20-19----19-20----20-19-21----------------20-21----------20-21----------------17-------19------------------------------------------------------------------------------------------------------------------------------------------------------------------------------------------------------------------------------
part order part 1 0:00 part 2 0:14 part 3 0:29 part 4 0:44 part 5 0:51 part 6 1:05 part 3 1:33 part 5 1:46 (gtr2 alone first time) part 6 2:00 part 3 2:27 part 7 2:42 part 8 2:49 (with part 7 and solo) part 2 3:25 part 3 3:40 part 5 3:53 (gtr 2 alone first time) please email any corrections or comments: entity@cfl.rr.com This file was downloaded from... Musical Manifestations (http://home.cfl.rr.com/xezlorir/mm) if the link is not found, email: Xezlorir@hotmail.com
Tap to rate this tab
 
# A B C D E F G H I J K L M N O P Q R S T U V W X Y Z