Kalmah - Dance Of The Water tab

Kalmah
Dance of the Water
Tabbed by Kevin

Drop all strings down half step
4/4 timing

|-------------||-----------------|--------------------||o-----------o||-----------------|--------------------||-------------||-----------------|--------------------||-------------||-----------------|--------------------||o--7-5-4-2--o||-2-2-6-7--7-10-9-|-------12--12-15-14-||---5-3-2-0---||-0-0-------------|-11-14--------------| . .
|-----------------|-------------------| |-----------------|-------------------| |-----------------|-------------------| |-----------------|-------------------| |---7-6-7--7-10-9-|-------12--12-10-9-| |-0---------------|-11-14-------------| .
|-------------------10-|--------------------||----------------12----|-------13--13-------||---12-11-12--12-------|----11--------------||----------------------|-13-----------14-13-||----------------------|--------------------||-0--------------------|--------------------|
|-------------------10-|----------------------------||----------------12----|-------13--12-13-12---------||---12-11-12--12-------|----11-------------14-12-11-||----------------------|-13-------------------------||----------------------|----------------------------||-0--------------------|----------------------------|
Solo|--------------------------|-14b(15)--15-14----|---------------------------||-16b(18)-16b(18)-16-17-19-|----------------16-|-15b(17)--15-12------------||--------------------------|-------------------|----------------14-14b-r14-||--------------------------|-------------------|---------------------------||--------------------------|-------------------|---------------------------||--------------------------|-------------------|---------------------------|
|------------------------|-----12------12------12------||---------------------15-|-15b(17)-----15b(17)-15b(17)-||-14-12-14b(15)-14-12----|-----------------------------||------------------------|-----------------------------||------------------------|-----------------------------||------------------------|-----------------------------|
|-15-14-12------------------------------------||---------15-13-12----------------------------||-----------------14-12-11--------------------||-------------------------14-12-10------------||---------------------------------14-12-10-10-||---------------------------------------------|
|--------------------------------------|------------------------------------||----------------------10p8h10p8p7h8p7-|--------10-12-10--------------------||---------------9-11-12----------------|-9-11-12--------12p11-12p11---------||--------9-10-12-----------------------|---------------------------14-13-14-||-9-10-12------------------------------|------------------------------------||--------------------------------------|------------------------------------|
|--------------------------------------------||-15-13-12-----------------------------------||---------14-12-11-----16-14-12--------------||-----------------14-16--------16-14-13------||--------------------------------------15-14-||--------------------------------------------|
|----------------------------------------------||----------------------------------------------||-----------------12-14-16-14-12---------------||---------13-14-16--------------16-14-12-14-12-||-12-14-15-------------------------------------||----------------------------------------------|
|------------------------------------------|--------------------------------||------------------------------------------|----------------12-13-15-13-----||-9p8h9p8h11p9h11p9h12p11h12p11------------|---11-12-14-12-14----------12---||------------------------------13-14-16-17-|-14-------------------------12--||------------------------------------------|------------------------------14||------------------------------------------|--------------------------------|
|--------------------------|-14b(15)--15-14----|---------------------------||-16b(18)-16b(18)-16-17-19-|----------------16-|-15b(17)--15-12------------||--------------------------|-------------------|----------------14-14b-r14-||--------------------------|-------------------|---------------------------||--------------------------|-------------------|---------------------------||--------------------------|-------------------|---------------------------|
|------------------------------||------------------------------||-14-12-14b(15)-14-12-14-12-14-||------------------------------||------------------------------||------------------------------|
Thats all i can figure out
Tap to rate this tab
 
# A B C D E F G H I J K L M N O P Q R S T U V W X Y Z