Kalmah – Black Waltz tab

Band: Kalmah
Song: The Black Waltz
Album: The Black Waltz
Tabber: Nick
Tuning: Drop D

INTRO

Lead|-----------------------------||---------------8-------------||-7--10----9----------10p9p7~-| Note: it is possible that this melody is |--7---------10---10----------| made by the keyboard.|-----------------------------||-----------------------------|
|----------------------------||---------------8----6h8h10~-||-7--10----9-----------------||--7---------10---10---------||----------------------------| ||----------------------------| | x4
| --------------------------------------|
|----------------------------|-----------------------------------||--------------8-------------|-------6---5---3--0h2h3--2h3h5--3~-||-7--10---9----------10-9-7~-|-7------7---5---3------------------||--7--------10---10----------|---7-7-----------------------------||----------------------------|-----------------------------------||----------------------------|-----------------------------------|
Rythm|----------------------------------||----------------------------------||----------------------------------||-0-0-0~~~-0-0-0----0-0-0~~~-0-0-0-||-0-0-0~~~-0-0-0----0-0-0~~~-0-0-0-||-0-0-0~~~-0-0-0----0-0-0~~~-0-0-0-| . . . . . . . . . .
1st time 2nd time|-------------|------------|----------------------------||-------------|------------|----------------------------||-------------|------------|----------------------------||-0-0-0--5--7-|0-0-0--5--2-|0-0-0-0-0-0-0-0-0-000-000-0-||-0-0-0--3--5-|0-0-0--3--0-|0-0-0-0-0-0-0-0-0-000-000-0-||-0-0-0-------|0-0-0-------|0-0-0-0-0-0-0-0-0-000-000-0-| . . . . . . . . . . ... ...
VERSE a
Both gtrs.|-------------------------------||-------------------------------||-------------------5---3---2-0-||-3----2-3----3-5---------------||-------------------------------|2x|---00-----00-----0---0---0-----|
1st 2nd|----------------------|--------|----------||----------------------|--------|----------||----------------------|--------|----------||-5-5-5-3-5-5-5-7-8--7-|-5--3-2-|-3---2--0-||-5-5-5-3-5-5-5-7-8--7-|-5--3-2-|-3---2--0-||-5-5-5-3-5-5-5-7-8--7-|-5--3-2-|-3---2--0-| . . . .
CHORUS
Lead|--------------------------------------------||-----------------10-11-10h11p10p8-10-8------||-7-6-7---10-9-10-----------------------10-9-||--------------------------------------------||--------------------------------------------|2x|--------------------------------------------|
1st 2nd|-------|-------------------10-10-9-10-|-----------------------||-------|---------11--10-11------------|-----------------------||-------|10-9-10-----------------------|10-9-10--10-9-7-6--7-9-||-8-7-8-|------------------------------|-----------------------||-------|------------------------------|-----------------------||-------|------------------------------|-----------------------|
Rythm|-------------------------------||-------------------------------||-------------------------------||-7-5-7---------3-2-------------||-5-3-5---------1-0-------------|2x|-------0-0-0-0-----0-0-000-000-| . . . . . . ... ...
|-------------------------------------------------------------||-------------------------------------------------------------||-------------------------------------------------------------||-3-2-3---------3-3-------------3-2-3---------2-2-------------||-1-0-1---------1-1-------------1-0-1---------0-0-------------||-------0-0-0-0-----0-0-000-000-------0-0-0-0-----0-0-000-000-|
INTRO RIFF VERSE b(same notes tremolo picked) CHORUS BREAKDOWN
RYTHM (clean) |---------------------------------||---------------------------------||---------------------------------||-----0-2-----0-3-----0-2-----0---||---0-------0-------0-------0-----||-0-------0-------0-------0-------| 4x
|---------------------------------|--------------||---------------------------------| ||---------------------------------| ||-----0-2-----0-3-----0-2-----0---| ||---0-------0-------0-------0-----| ||-0-------0-------0-------0-------|
|---------------------------------||---------------------------------||---------------------------------||-----0-2-----0-3-----0-2-----0---||---0-------0-------0-------0-----||-3-------3-------3-------3-------|
|---------------------------------||---------------------------------||---------------------------------||-----0-2-----0-3-----0-2-----0---||---0-------0-------0-------0-----||-5-------5-------5-------5-------|
|---------------------------------||---------------------------------||---------------------------------||-----0-2-----0-3-----0-3-----0---| ||-0-0-----0-0-----0-0-----0-0-----| ||---------------------------------| |
all this 2x |----------------------------------------------------|
Lead gtr does something over those notes. can't figure out what
SOLO|---------------------------------------------||---------------------------------------------||-----------------------7-6h7p6h7p6h7p6h7p6h7-||-----------4-5-7-5-7-8-----------------------||-5-4-5-7-8-----------------------------------|played right before the real solo|---------------------------------------------| . . . . . .
|----------------------------------------------||---------------8------------------------------||-7---10---9---------10-9-7~-7---10--9---------||---7--------10---10-----------7-------10-7~~~-||----------------------------------------------||----------------------------------------------|
|------------------------------------||----------------------------10------||-----7---7-10---10-12----12----7~~~-||-3/7---7------8-------10------------||------------------------------------||------------------------------------|
|-----------------------------------------8------||---------------------------------8h10h11--------||---------------------7h9h10p9h10----------10~~~-||-----10-----8-7h8h10----------------------------||-7-8----7-8-------------------------------------||------------------------------------------------|
|---------------------||-----------8---------||-7-10-9-10---10-9----||------------------10-| repeat this until end of solo...which i can't figure |---------------------| and too fast for me.out since it's too unclear well |---------------------| maybe just too fast ^^
Then play intro riff until song ends
OUTRO|----------------------------||----------------------------||-7---10---9----12---10-9-7~-||---7--------10--------------||----------------------------||----------------------------|
Please rate this tab:
x1.0