Kamelot - Light I Shine On You tab

Song: The Light I Shine on You - Kamelot
Key: Gb/Ebm
Tuning: Half step down


Intro (guitar 1):

---------------------------------------------------------|---------------------------------------------------------|------9---12------11--14----12--16-----14-16-17-16-------|--------9-----------12--------14-------------------------|---------------------------------------------------------|---------------------------------------------------------|
---------------------------------------------------------|---------------------------------------------------------|------9---12------11--14----12--16-----14-16-17-16-------|--------9-----------12--------14-------------------------|---------------------------------------------------------|---------------------------------------------------------|
---------------------------------------------------------|---------------------------------------------------------|------9---12------11--14----12--16-----14-16-17-19-17----|--------9-----------12--------14-------------------------|---------------------------------------------------------|---------------------------------------------------------|
---------------------------------------------------------|---------------------------------------------------------|--16h17p16-19-17-16h17p16--------------------------------|--------------------------19-17-16-17-16-----------------|-----------------------------------------17>19-----------|---------------------------------------------------------|
Intro: Guitar 2:
-------------------------------------|-------------------------------------|-------------------------------------|--7--2-2-222-2-2--5-2-2-222-2-2------|--7--2-2-222-2-2--5-2-2-222-2-2------|--5--0-0-000-0-0--3-0-0-000-0-0------|
-------------------------------------|-------------------------------------|---------------------7---------------|--7--2-2-222-2-2--7--7---------------|--7--2-2-222-2-2--7--5---------------|--5--0-0-000-0-0--5------------------|
-------------------------------------|-------------------------------------|-------------------------------------|--7--2-2-222-2-2--5-2-2-222-2-2------|--7--2-2-222-2-2--5-2-2-222-2-2------|--5--0-0-000-0-0--3-0-0-000-0-0------|
-------------------------------------|-------------------------------------|---------------------7--5--7--9------|--7--2-2-222-2-2--7--7--5--7--9------|--7--2-2-222-2-2--7--5--3--5--7------|--5--0-0-000-0-0--5------------------|
Verse:
-------------2---2---0-- listen for timing, all Ebm
Pre-Chorus:
----------------------|----------------------|--2--4--5--7----------|--2--4--5--7----------|--0--2--3--5----------|----------------------|
----------------------|----------------------|----------------------|----------7-----------|---5--7-----7---------|----------------------|
Chorus:
---------------------------------|---------------------------------|-9-------------------------------|-9--10--7---5---4----------------|-7--10--7---5---4----------------|----8---5---3---2----------------|
Verse Pre-chorus Chorus Bridge (no guitar) Solo: Didn't tab it. It's in the Ebm scale (starting on the Eb on the 9th fret on the Gb-string) Final Chorus: play the same chords as other choruses, but instead of powerchords play 16th notes on the root note of each chord, palm muted Have fun!!
Tap to rate this tab
 
# A B C D E F G H I J K L M N O P Q R S T U V W X Y Z