Kamikazee - Meron Akong Ano tab

Meron akong ano-Kamikazee (cover song from Francis M.)

by 09283150081
SHC Lucena..

Intro-

GtrI|-----------------------------------------------------||-----------------------------------------------------||-----------------------------------------------------||-----------------------------------------------------|6x|-----------------------------------------------------||-0h2-222-000-0h3-333-555--0h2-222-000-0h3-333-555----|
|-----------------------------------------------------||-----------------------------------------------------||-----------------------------------------------------||-----------------------------------------------------||-3333-4444-5555-6-------3333-4444-5555-6-------------||-1111-2222-3333-4-------1111-2222-3333-4-------------|
|-----------------------------------------------------||-----------------------------------------------------||-----------------------------------------------------||-----------------------------------------------------||-3333-4444-5555-6-------3333-4444-5555-6---4--2~-----||-1111-2222-3333-4-------1111-2222-3333-4---2--0~-----|
then|-----------------------------------------------------||-----------------------------------------------------||---------------------3/4444-xxx-4/5555---------------||-----------------------------------------------------||---------------------1/2222-xxx-2/3333---------------||-0222-0222-0222-0222---------------------------------| **** **** **** ****
Verse(do 2x)gtrI |-----------------------------------------------------||-----------------------------------------------------||-----------------------------------------------------||-----------------------------------------------------||-----------------------------------------------------||-0222-0222-0222-02-----------------------------------| **** **** **** **
|-----------------------------------------------------||-----------------------------------------------------||-------------------xxx3/4444-xxx-4/5555--------------||-------------------xxx-------------------------------||-------------------xxx1/2222-xxx-2/3333--------------||-0222-0222-0222-02-xxx-------------------------------| **** **** **** **
Verse-
|-----------------------------------------------------||-----------------------------------------------------||-------------------xxx3/4444-xxx-4/5555--------------||-------------------xxx-------------------------------|2x|-------------------xxx1/2222-xxx-2/3333--------------||-0222-0222-0222-02-xxx-------------------------------|
then|-----------------------------------------------------||-----------------------------------------------------||-----------------------------------------------------||-2~-------3~--------9~------2~-------3~--------9-----||-2~-------3~--------9~------2~-------3~--------9-----||-0~-------1~--------7~------0~-------1~--------7-----|
prechorus-GtrI|-----------------------------------------------------||-----------------------------------------------------||-----------------------------------------------------||-----------------------------------------------------|2x|-----------------------------------------------------||-0h2-222-000-0h3-333-555--0h2-222-000-0h3-333-555----|
|-----------------------------------------------------||-----------------------------------------------------||-----------------------------------------------------||-4~-----4--------4~----------------------------------||-4~-----4--------4~----------------------------------||-2~-----2--------2~----------------------------------|
Chorus-
GtrI|-----------------------------------------------------||-----------------------------------------------------||-----------------------------------------------------||-----------------------------------------------------|4x|-----------------------------------------------------||-0h2-222-000-0h3-333-555--0h2-222-000-0h3-333-555----|
then|-----------------------------------------------------||-----------------------------------------------------||-----------------------------------------------------||-----------------------------------------------------||-3333-4444-5555-6-------3333-4444-5555-6-------------||-1111-2222-3333-4-------1111-2222-3333-4-------------|
|-----------------------------------------------------||-----------------------------------------------------||-----------------------------------------------------||-----------------------------------------------------||-3333-4444-5555-6-------3333-4444-5555-6---4--2~-----||-1111-2222-3333-4-------1111-2222-3333-4---2--0~-----|
then|-----------------------------------------------------||-----------------------------------------------------||---------------------3/4444-xxx-4/5555---------------||-----------------------------------------------------||---------------------1/2222-xxx-2/3333---------------||-0222-0222-0222-0222---------------------------------| **** **** **** ****
Do Verse to Chorus-InterludeGtrI|----------------------------------------||----------------------------------------||-999999-777777777-1212121212121212------||----------------------------------------|4x|-777777-555555555-1010101010101010------||----------------------------------------|
GtrII|----------------------------------------||----------------------------------------||----------------------------------------||-7-7-7-7-7-7-7-7-7-7-7-7-7-7-7-7--------||-5-5-5-5-5-5-5-5-5-5-5-5-5-5-5-5--------||----------------------------------------|
then-|---------------------------------||---------------------------------||---------------------------------||---------------------------------||-2-2-2-22-2-22-2-2----22-22-22---||-0-0-0-00-0-00-0-0----00-00-00---|
|-----------------------------------------------------||-----------------------------------------------------||-----------------------------------------------------||-----------------------------------------------------||-2-2-2-22-2-22-2-2----22-22-22---22-22-22------------||-0-0-0-00-0-00-0-0----00-00-00---00-00-00------------|
|-----------------------------------------------------||-----------------------------------------------------||-----------------------------------------------------||-----------------------------------------------------||-2-2-2-22-2-22-2-2------2-2-2-22-2-22-2-2------------||-0-0-0-00-0-00-0-0------0-0-0-00-0-00-0-0------------|
GtrI|-----------------------------------------------------||------------------5~--7~--8-10-7-8~------------------||-9~--7~--5~---4~-------------------------------------||-9~--7~--5~---5~-------------------x-xxx-x-xxx-------||-7~--5~--3~---5~-------------------x-xxx-x-xxx-------||--------------3~-------------------x-xxx-x-xxx-------|
GtrI|-----------------------------------------------------||-----------------------------------------------------||-9~--7~--5~---4~----9~--7~--5~-----------------------||-9~--7~--5~---5~----9~--7~--5~-x-xxx-x-xxx-----------||-7~--5~--3~---5~----7~--5~--3~-x-xxx-x-xxx-----------||--------------3~---------------x-xxx-x-xxx-----------|
Do verse-to chorus
|-----------------------------------------------------||-----------------------------------------------------||-----------------------------------------------------||-----------------------------------------------------||-22-22-22----22-22-22-----22-22-22---22-22-22--------||-00-00-00----00-00-00-----00-00-00---00-00-00--------|
|-----------------------------------------------------||------------------------------------------4^~--------||-----------------------------------------------------||-----------------------------------------------------||-3333-4444-5555-6-------3333-4444-5555-6-------------||-1111-2222-3333-4-------1111-2222-3333-4-------------|
|-----------------------------------------------------||-----------------------------------------------------||-----------------------------------------------------||-----------------------------------------------------||-3333-4444-5555-6-------3333-4444-5555-6---4--2~-----||-1111-2222-3333-4-------1111-2222-3333-4---2--0~-----|end
Tap to rate this tab
 
# A B C D E F G H I J K L M N O P Q R S T U V W X Y Z