Kamikazee - Halik tab

Remake. May nag request kasi na i-standard ko daw yung una kong tab. hehe!


Song Title:  Halik
Artist/Band: Kamikazee
Album:       Romantico (2011)

Tabbed by:   Pauz Prima (primesenthyx@yahoo.com)

Tuning:      Standard

--------------------------------------------------------------------------------------------------

INTRO:

Guitar1:

|-------------------------------------||-------------------------------------||-444444444444444444444444444-6/8-6\4-||-xxxxxxxxxxxxxxxxxxxxxxxxxxx-xxx-x\x-||-222222222222222222222222222-4/6-4\2-||-------------------------------------|
|-----------------------------------------------------||-----------------------------------------------------||--11-11--9po8-6-6h8~---11-11--11-11-11/13-11-9po8-6~-||-9--------------------9------9-----------------------||-----------------------------------------------------||-----------------------------------------------------|
|---------------------------------------------------------------------------------------||---------------------------------------------------------------------------------------||--11-11-9po8-6-8po6---11/13-11-9po8-9-8h9-8----------------------------------------4~~-||-9------------------9-----------------------9/11~~---------------------------------4~~-||-----------------------------------------------------*****************************-2~~-||-----------------------------------------------------*****************************-----| |----------pickslide---------|
Guitar2: B-F#-E-F# (2x) B (break) VERSE1: Guitar1:
|-----2-----2~------2-----2~------0-----0~------2-------0---||-4-4---4-4-----4-4---4-4-----0-0---0-0-----2-2---2-0-0---0-||-----------------------------------------------------------||-----------------------------------------------------------||-----------------------------------------------------------||-----------------------------------------------------------|
|-----2-----2~------2-----2~------2-----2~------0-----0~-||-4-4---4-4-----4-4---4-4-----2-2---2-2-----0-0---0-0----||--------------------------------------------------------||--------------------------------------------------------||--------------------------------------------------------||--------------------------------------------------------|
|-2222222222222222-00000000-2222-0000-|-2222222222222222-22222222-00000000-2~~-|----------||-4444444444444444-00000000-2222-0000-|-4444444444444444-22222222-00000000-2~~-|----------||-------------------------------------|----------------------------------------|--6/8-6\4-||-------------------------------------|----------------------------------------|--xxxxxxx-||-------------------------------------|----------------------------------------|--4/6-4\2-||-------------------------------------|----------------------------------------|----------|
Guitar2:
|-----------------------------------------------------------||-----4-----4~------4-----4~------0-----0~------2-------0---||-4-4---4-4-----4-4---4-4-----1-1---1-1-----3-3---3-1-1---1-||-----------------------------------------------------------||-----------------------------------------------------------||-----------------------------------------------------------|
|--------------------------------------------------------||-----4-----4~------4-----4~------2-----2~------0-----0~-||-4-4---4-4-----4-4---4-4-----3-3---3-3-----1-1---1-1----||--------------------------------------------------------||--------------------------------------------------------||--------------------------------------------------------|
|-------------------------------------|------------------------------------2~~-||-4444444444444444-00000000-2222-0000-|-4444444444444444-22222222-00000000-2~~-||-4444444444444444-11111111-3333-1111-|-4444444444444444-33333333-11111111-3~~-||-------------------------------------|----------------------------------------||-------------------------------------|----------------------------------------||-------------------------------------|----------------------------------------|
B E F# E Kumupas na, lambing sa'yong mga mata B F# E Nagtataka kung bakit, yakap mo'y 'di na nadarama B E F# E May mali ba kong nagawa? Tila nag-iba ang mga kilos mo at salita B F# E F# Bakit kaya? Parang hindi ka na masaya... CHORUS: B F# - G#m E F# Ika'y biglang natauhan, umalis kaagad ng hindi nagpapaalam B F# G#m E F# Ang sabi ko hindi kita mamimiss, hanggang kelan ito matitiis? B F# - G#m E F# Ika'y biglang natauhan, umalis kaagad ng wala man lang paalam B F# G#m E F# -- B (break) Pag nawala doon lang mamimiss, hanggang kelan ito matitiis? VERSE2: Guitar1:
|-----2-----2~------2-----2~------0-----0~------2-------0---||-4-4---4-4-----4-4---4-4-----0-0---0-0-----2-2---2-0-0---0-||-----------------------------------------------------------||-----------------------------------------------------------||-----------------------------------------------------------||-----------------------------------------------------------|
|-----2-----2~------2-----2~------2-----2~------0-----0~-||-4-4---4-4-----4-4---4-4-----2-2---2-2-----0-0---0-0----||--------------------------------------------------------||--------------------------------------------------------||--------------------------------------------------------||--------------------------------------------------------|
|-2222222222222222-00000000-2222-0000-|-2222222222222222-22222222-00000000-2~~-|----------||-4444444444444444-00000000-2222-0000-|-4444444444444444-22222222-00000000-2~~-|----------||-------------------------------------|----------------------------------------|--6/8-6\4-||-------------------------------------|----------------------------------------|--xxxxxxx-||-------------------------------------|----------------------------------------|--4/6-4\2-||-------------------------------------|----------------------------------------|----------|
Guitar2: (repeat 4x)
|---------------------------------------------------------||---------------------------------------------------------||---------------------------------------------------------||-----4-----4~------4-----4~------4-----4~------4-----4~--||-2-2---2-2-----2-2---2-2-----2-2---2-2-----2-2---2-2-----||---------------------------------------------------------|
B E F# E Alam ko na, magaling lang ako sa umpisa B F# E Umasa ka pa sa akin, mga pangakong nauwi lang sa wala B E F# E Nasayang lang ang 'yong pag-tiyatiyaga, wala kang napala, at puro lang ako salita, B F# E F# Kaya pala, pag-gising ko wala ka na... ---REPEAT CHORUS--- ADLIB:
F# F# E|------------------|---------------------------------------------------||------------------|---------------------------------------------------||-1111111111111111-|-11111111111111111111111111111111-9999999999999999-||-xxxxxxxxxxxxxxxx-|-xxxxxxxxxxxxxxxxxxxxxxxxxxxxxxxx-xxxxxxxxxxxxxxxx-||-9-9-9-9-9-9-9-9--|-9-9-9-9-9-9-9-9-9-9-9-9-9-9-9-9--7777777777777777-||------------------|---------------------------------------------------|
G#m F# E Eb E Eb C# B|--------------------------------------------------------------------|----------||--------------------------------------------------------------------|----------||-1313131313131313-11111111-9999-88/99999999-8-6-4444444444444444-4~-|--6/8-6\4-||-xxxxxxxxxxxxxxxx-xxxxxxxx-xxxx-xx-xxxxxxxx-x-x-xxxxxxxxxxxxxxxx-x~-|--xxx-xxx-||-1111111111111111-9-9-9-9--7777-66/77777777-6-4-2222222222222222-2~-|--4/6-4\2-||--------------------------------------------------------------------|----------|
CHORUS: B F# - G#m E F# Ika'y biglang natauhan, umalis kaagad ng hindi nagpapaalam B F# G#m E F# Ang sabi ko hindi kita mamimiss, hanggang kelan ito matitiis? B F# - G#m E F# Ngayon ko lang natutunan, masubukang mabuhay ng para bang may kulang B F# G#m E F# Pag nawala doon lang mamimiss, paalam sa halik mong matamis.. Guitar 1: (ngayon ko lang..)
|-----------------------------------------------------||-----------------------------------------------------||--11-11--9po8-6-6h8~---11-11--11-11-11/13-11-9po8-6~-||-9--------------------9------9-----------------------||-----------------------------------------------------||-----------------------------------------------------|
|-----------------------------------------------------------------------------------||-----------------------------------------------------------------------------------||--11-11-9po8-6-8po6---11/13-11-9po8-9-8h9-8----------------------------------------||-9------------------9-----------------------9/11~~---------------------------------||-----------------------------------------------------*****************************-||-----------------------------------------------------*****************************-| |----------pickslide---------|
OUTRO: Guitar1:
|---------------------------||---------------------------||-4~----------4~-99~-1111~--||-x--22~-44~--x--xx--xxx----||-2~-22~-44~--2~-77~-9-9~~--||----00~-22~----------------|
Guitar2:
|--------------------------||--------------------------||--------------------------||-4~-22~-44~--4~-22~-44~~--||-2~-22~-44~--2~-22~-44~~--||----00~-22~-----00~-22~~--|
/ - slide up \ - slide down * - pickslide po - pulloff x - dead note ~ - let ring h - hammer on Paki-rate po ULIT!..:D ----------------------------------------------------------------------------------------- > SenthyX Zone (sxz) > Senthyx Band
Tap to rate this tab
 
# A B C D E F G H I J K L M N O P Q R S T U V W X Y Z