Kara's Flowers - Soap Disco tab

Soap Disco
Kara's Flowers
The Fourth World
Tabbed by: Danielle Weitzman

Standard Tuning


Verse 1

--------------------| --------------------| --------------------| --------------------| 333333333--55555555-|111111111--33333333-|(x4)
Chorus
-------------------------------8-8-8-8-8-8-8-8|-------------------------------9-9-9-9-9-9-9-9| ------------------------------1010101010101010| 555555555---------------------1010101010101010| 333333333--77777777--33333333--8-8-8-8-8-8-8-8|-----------55555555--11111111-----------------| (x2)
Verse 2
--------------------| --------------------| --------------------| --------------------| 333333333--55555555-|111111111--33333333-|(x4)
Chorus
-------------------------------8-8-8-8-8-8-8-8|-------------------------------9-9-9-9-9-9-9-9| ------------------------------1010101010101010| 555555555---------------------1010101010101010| 333333333--77777777--33333333--8-8-8-8-8-8-8-8|-----------55555555--11111111-----------------|(x2)
Solo 1
---------------------------------------------------------------------| ---------------------------------------------------------------------| --10-9---7--------10-9-7----------------------9-10-10-10--9-7--------| 7----------10-9--7-------10-9-10--7-9--7-7-7-------------------10-9--| ---------------------------------------------------------------------|---------------------------------------------------------------------|
---------------------| ---------------------| --10-9---7-------5-5-| 7----------10-9------|---------------------|---------------------|
Chorus
-------------------------------8-8-8-8-8-8-8-8|-------------------------------9-9-9-9-9-9-9-9| ------------------------------1010101010101010| 555555555---------------------1010101010101010| 333333333--77777777--33333333--8-8-8-8-8-8-8-8|-----------55555555--11111111-----------------|(x2)
Bridge
13-----12-----13----16-----|----8-----8-----8-----12-----12-----12--|13-----14-----13----18-----|-----8-----8-----------14-----14-----14-| 12-----14-----14----17-----|-9----9-----9-----------14-----14-------| ---------------------------|----------------------------------------|---------------------------|----------------------------------------|---------------------------|----------------------------------------|
13-----13-----13--------13---15-13------|-13-----13-----13-----13---13-----13----| --14-----14---------13------------------| ----------------------------------------|----------------------------------------|----------------------------------------|
Solo 2
-15b--15~-------------------------------------------------| ------------------------13-15--15b--------------13-15b-15b|------------------12-14-------------------12~-14----------| ------------12-14---------------------14~-----------------| ----------------------------------------------------------| ----------------------------------------------------------|
-20b--20~-------------------------------------------------| ------------------------13-15--15b--------------13-15-15b-|------------------12-14-------------------12-14-----------| ------------12-14---------------------12-14---------------| ----------------------------------------------------------| ----------------------------------------------------------|
-12-17-12-15b--20b----| ----------------------|----------------------| ----------------------| ----------------------| ----------------------|
Chorus
------------8-|------------9-| -----------10-| 55---------10-| 33--77--3---8-|----55--1-----|
-------------------------------8-8-8-8-8-8-8-8|-------------------------------9-9-9-9-9-9-9-9| ------------------------------1010101010101010| 555555555---------------------1010101010101010| 333333333--77777777--33333333--8-8-8-8-8-8-8-8|-----------55555555--11111111-----------------| (x3)
Outro
13-----13---------12--12---------13--13|----13-----13---13----|13-------13---13--14----14-----|-14----13-----13-----13-13----| 12---------12-----14------14----|14-----14-----14-------14----|--------------------------------------------------------------|--------------------------------------------------------------|--------------------------------------------------------------|
-------------------------------8-8-8-8-8-8-8-8---|-------------------------------9-9-9-9-9-9-9-9---| ------------------------------1010101010101010---| 555555555---------------------1010101010101010--5| 333333333--77777777--33333333--8-8-8-8-8-8-8-8--3|-----------55555555--11111111--------------------|
Tap to rate this tab
 
# A B C D E F G H I J K L M N O P Q R S T U V W X Y Z