Karma To Burn - Bobbi Bobbi Bobbi Im Not God tab

http://listen.to/desertmusic

desertmusicv1@yahoo.com

Karma To Burn - Bobbi, Bobbi, Bobbi - I'm Not God

Tuning - 'Dropped D' - D A D G B E

click, click, click, click x4|-----------|-----------------------------------------------------|||-----------|-----------------------------------------------------|||-----------|-----------------------------------------------------|||-----------|-----------------------------------------------------|||-3p0-0-3-5-|-0-0-0-0-0-0--0--0-0-0-0-0--0--0-0-0-0--0--3p0-0-3-5-|||-3p0-0-3-5-|-0-0-0-0-0-0--0--0-0-0-0-0--0--0-0-0-0--0--3p0-0-3-5-||
[00:21] x6|-----------------------------------------------------|||-----------------------------------------------------|||-7-7-7-7-7-7--7--7-7-7-7-7--7--7-7-7-7---------------|||-x-x-x-x-x-x--x--x-x-x-x-x--x--x-x-x-x---------------|||-5-5-5-5-5-5--5--5-5-5-5-5--5--5-5-5-5--0--3p0-0-3-5-|||-0-0-0-0-0-0--0--0-0-0-0-0--0--0-0-0-0--0--3p0-0-3-5-||
Note: [01:17] variation of above riff is played at the 8th fret:
|----||----||-10-| |--x-||--8-||--0-|
[00:49]
|-----------------------------------------------------------||----------------------------------------------s------------||-------------------------------5p0-5-5--7--7-7/--10--10-10-||-------------------------------5p0-5-5--7--7-7/--10--10-10-||-0--6p0--6-6--5-5-5--3-3-3--0--3p0-3-3--5--5-5/---8---8--8-||-0--6p0--6-6--5-5-5--3-3-3--0------------------------------|
|-----------------------------------------------------------||-----------------------------------------------------------||-------------------------------5p0-5p0---------------------||-------------------------------5p0-5p0---------------------||-0--6p0--6-6--5-5-5--3-3-3--0--3p0-3p0--3-3--8-8-----------||-0--6p0--6-6--5-5-5--3-3-3--0-----------3-3--8-8-----------|
[01:46]
x2 x3|--------------||--------------------------------------|||--------------||--------------------------------------|||--------------||--------------------------------------|||--------------||--------------------------------------|||-0---3-3--8-8-||-0--3p0-------------3p0---------------|||-0---3-3--8-8-||-0------6p0-0-3b--0-----6p0-3b--------||
x4|-------------------------|----------------------------|||-------------------------|----------------------------|||-------------------------|----------------------------|||-------------------------|----------------------------|||-0--3p0---------3-3--8-8-|-0--0--0-0-0-0--0--3-3--8-8-|||-0------6p0-3b--3-3--8-8-|-0--0--0-0-0-0--0--3-3--8-8-||
x2|-----------------------------------------------------|||-----------------------------------------------------|||-7-7-7-7-7-7--7--7-7-7-7-7--7--7-7-7-7---------------|||-x-x-x-x-x-x--x--x-x-x-x-x--x--x-x-x-x---------------|||-5-5-5-5-5-5--5--5-5-5-5-5--5--5-5-5-5--0--3p0-0-3-5-|||-0-0-0-0-0-0--0--0-0-0-0-0--0--0-0-0-0--0--3p0-0-3-5-||
|--------------------------------------------------------------------------||-----------------------------------------------------------------s--------||-10-10-10-10-10-10-10-10--10-10-10-10-10-10-10--10-10-10-10-10-10/--------||--x--x--x--x--x--x--x--x---x--x--x--x--x--x--x---x--x--x--x--x--x/--------||--8--8--8--8--8--8--8--8---8--8--8--8--8--8--8---8--8--8--8--8--8/--------||--0--0--0--0--0--0--0--0---0--0--0--0--0--0--0---0--0--0--0--0--0/--------|
|--------------------------------------------------------------------------||--------------------------------------------------------------------------||-15-15-15-15-15-15-15-15----14-14-14-14-14-14-14-14-----------------------||--x--x--x--x--x--x--x--x-----x--x--x--x--x--x--x--x-----------------------||-13-13-13-13-13-13-13-13----12-12-12-12-12-12-12-12-----------------------||--0--0--0--0--0--0--0--0-----0--0--0--0--0--0--0--0-----------------------|
|--------------------------------------------------------------------------||--------------------------------------------------------------------------||-14-14-14-14-14-14-14b--14-14-14-14-14-14-14------------------------------||--x--x--x--x--x--x--x----x--x--x--x--x--x--x------------------------------||-12-12-12-12-12-12-12b--12-12-12-12-12-12-12-0--3-3--8-8--3p0-0-3/5-5-0---||--0--0--0--0--0--0--0----0--0--0--0--0--0--0-0--3-3--8-8--3p0-0-3/5-5-0---|
Tablature Key:
|------------- hammer on to 3 |-------------|--2h3p2------ then pull off |---x-x------- muffled string|------------- back to 2 |---x-x-------
|------------- pluck 5 then |-------------|--5b7r5------ bend up until |------------- palm muting|------------- pitch is equal |------------- to 7, release to 5 pm..........
|------------- slide along string in |------------- slide to second|------4s->--- direction of arrow |---5-s-7----- note from first|------------- |-------------
|-------------|------5~~~~~- string vibrato|-------------
Tap to rate this tab
 
# A B C D E F G H I J K L M N O P Q R S T U V W X Y Z