Cote tab with lyrics by Karnivool - Easy chords and tabs for guitar

Karnivool – Cote tab

C.O.T.E

This Song has two guitars, both playing pretty complex stuff, but this tab will do well 
for just one guitar. Some bits i didn't do 'coz im lazy. you work them out :)

tuning (low to high): B F# B G B E

Legend:
	q = quarter note
	e = eighth note
	s = sixteenth note
	h = hammer on
	p = pull off
	. = palm mute

|o---o| |-----| repeat signs |o---o|
Intro
1 2 3 4 1 2 3 4 s s s s s s s s s s s s s s s s s s s s s s s s s s s s s s s s|-0-0-0---0-0-0-0---0-0-0-0---0-0|0-0---0-0-0-0---0-0-0---0-0---0-||o7-7-7---7-7-7-7---7-7-7-7---7-7|7-7---7-7-7-7---7-7-7---7-7---7-||-7-7-7---7-7-7-7---7-7-7-7---7-7|7-7---7-7-7-7---7-7-7---7-7---7-||-5-5-5---5-5-5-5---5-5-5-5---5-5|5-5---5-5-5-5---5-5-5---5-5---5-||o5-5-5---5-5-5-5---5-5-5-5---5-5|5-5---5-5-5-5---5-5-5---5-5---5-||-5-5-5---5-5-5-5---5-5-5-5---5-5|5-5---5-5-5-5---5-5-5---5-5---5-|
1 2 3 4 1 2 3 4 s s s s s s s s s s s s s s s s s s s s s s s s s s s s s s s s|-0---0-0---0-0-0---0-0-0-0---0-0|0-0---0-0-0-0---0-0-0-0---0-0-0-||-5---5-5---5-5-5---5-5-5-5---5-5|5-5---5-5-5-5---7-7-7-7---7-7-7o||-5---5-5---5-5-5---5-5-5-5---5-5|5-5---5-5-5-5---7-7-7-7---7-7-7-||-5---5-5---5-5-5---5-5-5-5---5-5|5-5---5-5-5-5---5-5-5-5---5-5-5-||-6---6-6---6-6-6---6-6-6-6---6-6|6-6---6-6-6-6---6-6-6-6---6-6-6o||--------------------------------|--------------------------------|
1 2 3 4 1 2 3 4 s s s s s s s s s s s s s s s s s s s s s s s s s s s s s s s s|-0-0-0---0-0-0-0---0-0-0-0---0-0|0-0---0-0-0-0---0-0-0---0-0---0-||-7-7-7---7-7-7-7---7-7-7-7---7-7|7-7---7-7-7-7---7-7-7---7-7---7-||-7-7-7---7-7-7-7---7-7-7-7---7-7|7-7---7-7-7-7---7-7-7---7-7---7-||-5-5-5---5-5-5-5---5-5-5-5---5-5|5-5---5-5-5-5---5-5-5---5-5---5-||-5-5-5---5-5-5-5---5-5-5-5---5-5|5-5---5-5-5-5---5-5-5---5-5---5-||-5-5-5---5-5-5-5---5-5-5-5---5-5|5-5---5-5-5-5---5-5-5---5-5---5-|
1 2 3 4 1 2 3 4 s s s s s s s s s s s s s s s s s s s s s s s s s s s s s s s s|-0---0-0---0-0-0---0-0-0-0---0-0|0-0---0-0-0-0---0-0-0-0---0-0-0-||-5---5-5---5-5-5---5-5-5-5---5-5|5-5---5-5-5-5---7-7-7-7---7-7-7-||-4---4-4---4-4-4---4-4-4-4---4-4|4-4---4-4-4-4---7-7-7-7---7-7-7-||-5---5-5---5-5-5---5-5-5-5---5-5|5-5---5-5-5-5---5-5-5-5---5-5-5-||-6---6-6---6-6-6---6-6-6-6---6-6|6-6---6-6-6-6---6-6-6-6---6-6-6-||--------------------------------|--------------------------------|
1 2 3 4 1 2 3 4 s s s s s s s s s s s s s s s s s s s s s s s s s s s s s s s s|-0-0-0---0-0-0-0---0-0-0-0---0-0|0-0---0-0-0-0---0-0-0---0-0---0-||-7-7-7---7-7-7-7---7-7-7-7---7-7|7-7---7-7-7-7---7-7-7---7-7---7-||-7-7-7---7-7-7-7---7-7-7-7---7-7|7-7---7-7-7-7---7-7-7---7-7---7-||-5-5-5---5-5-5-5---5-5-5-5---5-5|5-5---5-5-5-5---5-5-5---5-5---5-||-5-5-5---5-5-5-5---5-5-5-5---5-5|5-5---5-5-5-5---5-5-5---5-5---5-||-5-5-5---5-5-5-5---5-5-5-5---5-5|5-5---5-5-5-5---5-5-5---5-5---5-|
1 2 3 4 s s s s s s s s s s s s s s s s q s s s s s s s s s s s s s s s s s|-0---0-0---0-0-0---0-0-0-0------|-------------------------------------||-5---5-5---5-5-5---5-5-5-5------|-------------------------------------||-4---4-4---4-4-4---4-4-4-4------|-------------------------------------||-5---5-5---5-5-5---5-5-5-5---0-0|1---1-1---1-1-1-1---1-1-1-1---1-1-1-1||-6---6-6---6-6-6---6-6-6-6---0-0|1---1-1---1-1-1-1---1-1-1-1---1-1-1-1||-----------------------------0-0|1---1-1---1-1-1-1---1-1-1-1---1-1-1-1|
Verse1: I didn't figure out this bit properly, coz im lazy, and my delay pedal is broken. but get the idea. also i didn't put in the timing, reasons as stated above.
|------------------------------------|------------------------------------||--------------------------h7p5p0----|------------------------------h3h5--||--------0h4h7p4p0------0h4----------|-------0h2h4p0h2h4---4-0h2h4p0------||-5(played a few times, with delay)--|-1(played a few times, with delay)--||------------------------------------|------------------------------------||------------------------------------|------------------------------------|
|------------------------------------|------------------------3-0h2h3p0-----||--------------------------h7p5p0----|---------------------------------h3h5-||--------0h4h7p4p0------0h4----------|-------0h2h4p0h2h4--------------------||-5(played a few times, with delay)--|-1(played a few times, with delay)----||------------------------------------|--------------------------------------||------------------------------------|--------------------------------------|
|------------------------------------|------------------------------------||--------------------------h7p5p0----|------------------------------h3h5--||--------0h4h7p4p0------0h4----------|-------0h2h4p0h2h4---4-0h2h4p0------||-5(played a few times, with delay)--|-1(played a few times, with delay)--||------------------------------------|------------------------------------||------------------------------------|------------------------------------|
|------------------------------------|------------------------3-0h2h3p0-----||--------------------------h7p5p0----|---------------------------------h3h5-||--------0h4h7p4p0------0h4----------|-------0h2h4p0h2h4--------------------||-5(played a few times, with delay)--|-1(played a few times, with delay)----||------------------------------------|--------------------------------------||------------------------------------|--------------------------------------|
|---0-----0-----0-----0-----0-----0-----0-----0-----2-----2---||-1-----1-----1-----1-----1-----1-----1-----1-----3-----3-----||-----0-----0-----0-----0-----0-----0-----0-----0-----0-----0-||-------------------------------------------------------------||-------------------------------------------------------------||-------------------------------------------------------------| x4
Chorus:|--0-0-0-0---0-0-0-0---0-0-0-0---0-0-0-0---2-2-2-2--||--1-1-1-1---1-1-1-1---1-1-1-1---1-1-1-1---3-3-3-3--||---------------------------------------------------||--1-1-1-1---1-1-1-1---1-1-1-1---1-1-1-1---3-3-3-3--||--1-1-1-1---1-1-1-1---1-1-1-1---1-1-1-1---3-3-3-3--||--1-1-1-1---1-1-1-1---1-1-1-1---1-1-1-1---3-3-3-3--| x4
|---------------------------------------------------||--7-7-7-7---7-7-7-7---8-8-8-8---8-8-8-8---7-7-7-7--||--7-7-7-7---7-7-7-7---7-7-7-7---7-7-7-7---7-7-7-7--||--5-5-5-5---5-5-5-5---5-5-5-5---5-5-5-5---5-5-5-5--||--5-5-5-5---5-5-5-5---5-5-5-5---5-5-5-5---5-5-5-5--||--5-5-5-5---5-5-5-5---5-5-5-5---5-5-5-5---5-5-5-5--|
|-----------------------------------------------||-----------------------------------------------||-----------------------------------------------||-------7~-------5~-------8~-------3~-----------||--6--6-----6--6-----6--6-----6--6--------------||---------------------------------------1---3---|
|---------------------------------------------------||--7-7-7-7---7-7-7-7---8-8-8-8---8-8-8-8---7-7-7-7--||--7-7-7-7---7-7-7-7---7-7-7-7---7-7-7-7---7-7-7-7--||--5-5-5-5---5-5-5-5---5-5-5-5---5-5-5-5---5-5-5-5--||--5-5-5-5---5-5-5-5---5-5-5-5---5-5-5-5---5-5-5-5--||--5-5-5-5---5-5-5-5---5-5-5-5---5-5-5-5---5-5-5-5--|
|-----------------------------------------------||-----------------------------------------------||-----------------------------------------------||-------7~-------8~-------3~--------------------||--6--6-----6--6-----6--6-----------------------||-----------------------------------------------|
Verse 2:|---0-----0-----0-----0-----0-----0-----0-----0-----2-----2---||-1-----1-----1-----1-----1-----1-----1-----1-----3-----3-----||-----0-----0-----0-----0-----0-----0-----0-----0-----0-----0-||-------------------------------------------------------------||-------------------------------------------------------------||-------------------------------------------------------------| x4
Chorus 2:|--0-0-0-0---0-0-0-0---0-0-0-0---0-0-0-0---2-2-2-2--||--1-1-1-1---1-1-1-1---1-1-1-1---1-1-1-1---3-3-3-3--||---------------------------------------------------||--1-1-1-1---1-1-1-1---1-1-1-1---1-1-1-1---3-3-3-3--||--1-1-1-1---1-1-1-1---1-1-1-1---1-1-1-1---3-3-3-3--||--1-1-1-1---1-1-1-1---1-1-1-1---1-1-1-1---3-3-3-3--| x4(fourth time let all ring)
Middle 8: (clean guitar. This isn't actually what's played. but with the vocals and quiet strings, these are the chords that sound)
e. s s s e. s s s e. s s s e. s s s e. s s s e. s s s e. s s s e. s s s|-0---0-0-0-0---0-0-0-0---0-0-0-0---0-0-0-|-0---0-0-0-0---0-0-0-0---0-0-0-0---0-0-0-||-7---7-7-7-7---7-7-7-7---7-7-7-7---7-7-7-|-8---8-8-8-8---8-8-8-8---8-8-8-8---8-8-8-||-7---7-7-7-7---7-7-7-7---7-7-7-7---7-7-7-|-7---7-7-7-7---7-7-7-7---7-7-7-7---7-7-7-||-5---5-5-5-5---5-5-5-5---5-5-5-5---5-5-5-|-5---5-5-5-5---5-5-5-5---5-5-5-5---5-5-5-||-5---5-5-5-5---5-5-5-5---5-5-5-5---5-5-5-|-6---6-6-6-6---6-6-6-6---6-6-6-6---6-6-6-||-5---5-5-5-5---5-5-5-5---5-5-5-5---5-5-5-|-----------------------------------------|
e. s s s e. s s s e. s s s e. s s s e. s s s e. s s s pause|-0---0-0-0-0---0-0-0-0---0-0-0-0---0-0-0-|-0---0-0-0-0---0-0-0-0-------------------||-7---7-7-7-7---7-7-7-7---7-7-7-7---7-7-7-|-8---8-8-8-8---8-8-8-8-------------------||-7---7-7-7-7---7-7-7-7---7-7-7-7---7-7-7-|-7---7-7-7-7---7-7-7-7-------------------||-5---5-5-5-5---5-5-5-5---5-5-5-5---5-5-5-|-5---5-5-5-5---5-5-5-5-----1-1-1-1---1-1-||-5---5-5-5-5---5-5-5-5---5-5-5-5---5-5-5-|-6---6-6-6-6---6-6-6-6-----1-1-1-1---1-1-||-5---5-5-5-5---5-5-5-5---5-5-5-5---5-5-5-|---------------------------1-1-1-1---1-1-|
Guitar solo:
|----------------------------------------------------------------------------||------------------------------------------7h8-5h7h8p5h7--8-7---7-8-10---17--||---9---11---12---14---9---7---11---12---------------------------------------||----------------------------------------------------------------------------||----------------------------------------------------------------------------||----------------------------------------------------------------------------|
|--14h15-17p15p14----------------||-----------------17p15----------||-----------------------16p14\12-||--------------------------------||--------------------------------||--------------------------------|
The next bit:
s|------------------------------------------------||------------------------------------------------||------------------------------------------------||--5---------------------------------------------||--3-(x24)---xx-5-5h6-xx-5-5h6-xx-5-5h6-xx-5-5h6-||------------------------------------------------| x2 . (gradual release)
e. s s s e. s s s e. s s s e. s s s|------------------------------------------||------------------------------------------||------------------------------------------||--5---5-5-5-5---5-5-5-5---5-5-5-5---5-5-5-||--3---3-3-3-3---3-3-3-3---3-3-3-3---3-3-3-||------------------------------------------|
|-------------------------------------||-------------------------------------||-------------------------------------||-------7~-------5~-------8~-------3~-||--6--6-----6--6-----6--6-----6--6----||-------------------------------------|
e. s s s e. s s s e. s s s e. s s s|------------------------------------------||------------------------------------------||------------------------------------------||--5---5-5-5-5---5-5-5-5---5-5-5-5---5-5-5-||--3---3-3-3-3---3-3-3-3---3-3-3-3---3-3-3-||------------------------------------------|
|-----------------------------------------------||-----------------------------------------------||-----------------------------------------------||-------7~-------8~-------3~--------------------||--6--6-----6--6-----6--6-----------------------||-----------------------------------------------|
Verse 3: (clean guitar)
|---0-----0-----0-----0-----0-----0-----0-----0-----2-----2---||-1-----1-----1-----1-----1-----1-----1-----1-----3-----3-----||-----0-----0-----0-----0-----0-----0-----0-----0-----0-----0-||-------------------------------------------------------------||-------------------------------------------------------------||-------------------------------------------------------------| x4
Chorus 3:|--0-0-0-0---0-0-0-0---0-0-0-0---0-0-0-0---2-2-2-2--||--1-1-1-1---1-1-1-1---1-1-1-1---1-1-1-1---3-3-3-3--||---------------------------------------------------||--1-1-1-1---1-1-1-1---1-1-1-1---1-1-1-1---3-3-3-3--||--1-1-1-1---1-1-1-1---1-1-1-1---1-1-1-1---3-3-3-3--||--1-1-1-1---1-1-1-1---1-1-1-1---1-1-1-1---3-3-3-3--| x4(fourth time let all ring)
Outro:
1 2 3 4 1 2 3 4 s s s s s s s s s s s s s s s s s s s s s s s s s s s s s s s s|-0-0-0---0-0-0-0---0-0-0-0---0-0|0-0---0-0-0-0---0-0-0---0-0---0-||-7-7-7---7-7-7-7---7-7-7-7---7-7|7-7---7-7-7-7---7-7-7---7-7---7-||-7-7-7---7-7-7-7---7-7-7-7---7-7|7-7---7-7-7-7---7-7-7---7-7---7-||-5-5-5---5-5-5-5---5-5-5-5---5-5|5-5---5-5-5-5---5-5-5---5-5---5-||-5-5-5---5-5-5-5---5-5-5-5---5-5|5-5---5-5-5-5---5-5-5---5-5---5-||-5-5-5---5-5-5-5---5-5-5-5---5-5|5-5---5-5-5-5---5-5-5---5-5---5-|
1 2 3 4 1 2 3 4 s s s s s s s s s s s s s s s s s s s s s s s s s s s s s s s s|-0---0-0---0-0-0---0-0-0-0---0-0|0-0---0-0-0-0---0-0-0-0---0-0-0-||-5---5-5---5-5-5---5-5-5-5---5-5|5-5---5-5-5-5---7-7-7-7---7-7-7-||-4---4-4---4-4-4---4-4-4-4---4-4|4-4---4-4-4-4---7-7-7-7---7-7-7-||-5---5-5---5-5-5---5-5-5-5---5-5|5-5---5-5-5-5---5-5-5-5---5-5-5-||-6---6-6---6-6-6---6-6-6-6---6-6|6-6---6-6-6-6---6-6-6-6---6-6-6-||--------------------------------|--------------------------------|
1 2 3 4 1 2 3 4 s s s s s s s s s s s s s s s s s s s s s s s s s s s s s s s s|-0-0-0---0-0-0-0---0-0-0-0---0-0|0-0---0-0-0-0---0-0-0---0-0---0-||-7-7-7---7-7-7-7---7-7-7-7---7-7|7-7---7-7-7-7---7-7-7---7-7---7-||-7-7-7---7-7-7-7---7-7-7-7---7-7|7-7---7-7-7-7---7-7-7---7-7---7-||-5-5-5---5-5-5-5---5-5-5-5---5-5|5-5---5-5-5-5---5-5-5---5-5---5-||-5-5-5---5-5-5-5---5-5-5-5---5-5|5-5---5-5-5-5---5-5-5---5-5---5-||-5-5-5---5-5-5-5---5-5-5-5---5-5|5-5---5-5-5-5---5-5-5---5-5---5-|
1 2 3 4 s s s s s s s s s s s s s s s s q s s s s s s s s s s s s s s s s s|-0---0-0---0-0-0---0-0-0-0------|-------------------------------------||-5---5-5---5-5-5---5-5-5-5------|-------------------------------------||-4---4-4---4-4-4---4-4-4-4------|-------------------------------------||-5---5-5---5-5-5---5-5-5-5---0-0|1---1-1---1-1-1-1---1-1-1-1---1-1-1-1||-6---6-6---6-6-6---6-6-6-6---0-0|1---1-1---1-1-1-1---1-1-1-1---1-1-1-1||-----------------------------0-0|1---1-1---1-1-1-1---1-1-1-1---1-1-1-1|
Enjoy - Chizbro
Please rate this tab:
x1.0