Kashmir - Vote 4 Dick Taid tab

    ___________________
   / Kashmir          / This song has the coolest lyrics Kashmir has ever
  / Vote 4 Dick Taid /  written. In this song you're in a sarcastic manner put
 / Cruzential       /   into the mind of the caricatured Mr. Dick Taid, who
/__________________/    tells about a dictator's point of views on society.

The song played by:
  1st Guitar - Heavy Distorted
  2nd Guitar - The Travel Guitar
  3rd Guitar - Heavy Distorted, Wah-Wah
  Chinese Water Organ (!) - (only for the intro)



INTRO (note that the rhythm starts with the drums):

Organ (starts, plays 7x):||-------------|--------------|-------------|-------------||||-0-----------|--------------|-0-----------|-------------||||-------0-----|--------------|-------0-----|-------------||||------------0|--------------|------------0|-------------||||-------------|--------------|-------------|-------7-----||||-------------|--------8-----|-------------|-------------||
1st Guitar (plays in after 1 round, plays 6x):||----12-12-10----10-10---|----12-12-10----10-10---|----12-12-10----10-10---|----12-12-10----10-10-10-10-||||-------------12---------|-------------12---------|-------------12---------|-------------12-------------||||------------------------|-12---------------------|------------------------|-12-------------------------||||-14---------------------|------------------------|-14---------------------|----------------------------||||------------------------|------------------------|------------------------|----------------------------||||------------------------|------------------------|------------------------|----------------------------||
2nd Guitar (plays in after 2 rounds, plays 5x):||---------------|---------------|---------------|---------------||||-<12>----------|---------------|-<12>----------|---------------||||--------<12>---|-<12>----------|--------<12>---|---------------||||---------------|---------------|---------------|-<12>----------||||---------------|---------------|---------------|---------------||||---------------|---------------|---------------|---------------||
Drums (plays in after 3 rounds, plays 4x): - Sorry, no drum tab here... FIRST & SECOND VERSE:
2nd Guitar (plays 4x):||-------------|-------------|-------------|-------------|||-------------|-------------|-------------|-------------|||-----------4-|-----4-----4-|-----4-------|-------------|||-----2-------|-------------|---2-------2-|---0-------0-|||---2---------|-0-----3-----|-2-----------|-0---0-------|||-3-----0-----|-------------|-------3-----|-------2-----|
|-------------|-------------|-------------|-------------|| |-------------|-------------|-------------|-------------|| |-----------4-|-----4-----4-|-----4-----4-|-----4-----4-|| |-----2-------|-------------|---2---4-----|---2---4-----|| |---2---------|-0-----3-----|-2-----------|-2-----------|| |-3-----0-----|-------------|-------------|-------------||
(plays 3x):||-------------|-------------|-------------|-------------||||-------------|-------------|-------------|-------------||||-----5-----5-|-----5-----4-|-----4-----4-|-----4-----4-||||---4---------|---4---------|---2---------|-------------||||-3-----5-----|-0-----2-----|-------------|-------------||||-------------|-------------|-0-----2-----|-3-----0-----||
|-------------|-------------|-------------|-------------| |-------------|-------------|-------------|-------------| |-3-----------|-------------|-2-----------|-------------| |-2-----------|-------------|-1-----------|-------------| |-3-----------|-------------|-2-----------|-------------| |-------------|-------------|-------------|-------------|
TONZER-PART:
1st Guitar (plays 2x):||-------------|-------------|-------------|-------------|||-------------|-------------|-------------|-------------|||-------------|-------------|-------------|-5-----4-----|||-5---5-2---2-|-5-5-5-2---2-|-5---5-2---2-|-5-----4-----|||-5---5-2---2-|-5-5-5-2---2-|-5---5-2---2-|-3-----2-----|||-3---3-0---0-|-3-3-3-0---0-|-3---3-0---0-|-------------|
|-------------|-------------|-------------|-------------|| |-------------|-------------|-------------|-------------|| |-3---3-------|-3-3---------|-3-3---------|-4-----------|| |-3---3-4~----|-3-3---4~----|-3-3---4-----|-4-----------|| |-1---1-4~----|-1-1---4~----|-1-1---4-----|-2-----------|| |-------2~----|-------2~----|-------2-----|-------------||
INTERLUDE:
1st Guitar (plays 2x):[palm mute the entire part]||--------------|-------------|--------------|-------------|-------------||||--------------|-------------|--------------|-------------|-------------||||--------------|-------------|--------------|-------------|-------------||||-9------------|-------------|-9------------|-------------|-------------||||-7-9-10-7-9-5-|-7-4-5-2-4-5-|-7-9-10-7-9-5-|-8-8-8-8-8-8-|-8-8-8-8-8-8-||||-0-7--8-5-7-3-|-5-2-3-0-2-3-|-0-7--8-5-7-3-|-6-6-6-6-6-6-|-6-6-6-6-6-6-||
CHORUS:
1st & 3rd Guitar (play 4x)||-------------|-------------|-------------|-------------|||-------------|-------------|-------------|-------------|||-9---9---9---|-------------|-------------|-------------|||-9---9---9---|-9-9---9-----|-5---5---5---|-------------|||-7---7---7---|-9-9---9-----|-5---5---5---|-5-5---5-----|||-------------|-7-7---7-----|-3---3---3---|-2-2---2-----|
||
||-------------|-------------|-------------|-------------|||-------------|-------------|-------------|-------------|||-------------|-------------|-------------|-------------|||-------------|-------------|-------------|-------------|||-------------|-------------|-------------|-------------|||-------------|-------------|-------------|-------------|
|-------------|-------------|-------------|-------------|| |-------------|-------------|-------------|-------------|| |-------------|-------------|-------------|-------------|| |-5---5---5---|-2-2---2-----|-3---3---3---|-2-2---2-----|| |-3---3---3---|-2-2---2-----|-1---1---1---|-2-2---2-----|| |-------------|-0-0---0-----|-------------|-0-0---0-----||
|
|-------------|-------------|-------------|-------------|| |-------------|-------------|-------------|-------------|| |-------------|-------------|-------------|-------------|| |-------------|-------------|-12b13~------|-9~\---------|| |-------------|-------------|-------------|-------------|| |-------------|-------------|-------------|-------------||
SOLO:
1st & 3rd Guitar (1st Guitar plays CHORUS-Part 3x, then the described part):[muffle all other strings]|--------------|----------------|---------------|----------------||--------------|----------------|---------------|----------------||-9---9---9--11|-11---11---11---|-12--12--12--14|-14---14---14---||--------------|----------------|---------------|----------------||-7---7---7---9|--9----9----9---|-10--10--10--12|-12---12---12---||--------------|----------------|---------------|----------------|
|-------------------|-------------------|------------------|-------------------||-------------------|-------------------|------------------|-------------------||-16-16-16-16-16-16-|-16-16-16-16-16-16-|-19---16-16-16-16-|-16-16-16-14-14-14-||-------------------|-------------------|------------------|-------------------||-14-14-14-14-14-14-|-14-14-14-14-14-14-|-17---14-14-14-14-|-14-14-14-12-12-12-||-------------------|-------------------|------------------|-------------------|
|--------------|----------------|---------------|----------------||--------------|----------------|---------------|----------------||-9---9---9--11|-11---11---11---|-12--12--12--14|-14---14---14---||--------------|----------------|---------------|----------------||-7---7---7---9|--9----9----9---|-10--10--10--12|-12---12---12---||--------------|----------------|---------------|----------------|
|-----------------|----------------|-------------------|-------------||-----------------|----------------|-------------------|-------------||-16-----16-16-16-|-14---14\12--12\|\11-11-11-11-11-11-|-9-9-9-8-8-8-||-----------------|----------------|-------------------|-------------||-14-----14-14-14-|-12---12\10---9\|-\9--9--9--9--9--9-|-7-7-7-6-6-6-||-----------------|----------------|-------------------|-------------|
|-------12---------|------------------|-----------------|-------------------||-15b17------15-12-|-15-13-12---------|----12-----------|-------------------||------------------|----------14-12-14|b16----b16r14-11-|-14-12-11----11----||------------------|------------------|-----------------|----------14-----12||------------------|------------------|-----------------|-------------------||------------------|------------------|-----------------|-------------------|
|-------------------|-------------------|-------------------|------------12--14||-------------------|-------------12----|----12-13----12-13-|-15-12-13-15--12--||----11-12----11-12-|-14-11-12-14----12-|-14-------14-------|------------------||-14-------14-------|-------------------|-------------------|------------------||-------------------|-------------------|-------------------|------------------||-------------------|-------------------|-------------------|------------------|
|-------------|-------------|-------------|-------------||-------------|-------------|-------------|-------------||-9---9---9---|-------------|-------------|-------------||-9---9---9---|-9-9---9-----|-5---5---5---|-------------||-7---7---7---|-9-9---9-----|-5---5---5---|-5-5---5-----||-------------|-7-7---7-----|-3---3---3---|-2-2---2-----|
|
|----14/15~-----12-|-15p14p12---12--------|----------------|----------------||-12---------15----|---------15------12---|/15---13---12---|-10b12~---------||------------------|----------------------|----------------|----------------||------------------|----------------------|----------------|----------------||------------------|----------------------|----------------|----------------||------------------|----------------------|----------------|----------------|
|-------------|-------------|-------------|-------------||-------------|-------------|-------------|-------------||-3-----------|-------------|-2-----------|-------------||-2-----------|-------------|-1-----------|-------------||-3-----------|-------------|-2-----------|-------------||-------------|-------------|-------------|-------------|
|
|-------------|-------------|-------------|-------------||-------------|-------------|-------------|-------------||-------------|-------------|-------------|-------------||-------------|-------------|-------------|-------------||-------------|-------------|-------------|-------------||-------------|-------------|-------------|-------------|
THIRD VERSE:1st, 2nd & 3rd Guitar (play 4x):||-------------|-------------|-------------|-------------|||-------------|-------------|-------------|-------------|||-------------|-------------|-------------|-------------|||-------------|-2---2-5---5-|-4---4-------|-2---2-------|||-5---5-2---2-|-0---0-3---3-|-2---2-5---5-|-0---0-4---4-|||-3---3-0---0-|-------------|-------3---3-|-------2---2-|
||
||-------------|-------------|-------------|-------------|||-------------|-------------|-------------|-------------|||-----------4-|-----4-----4-|-----4-------|-------------|||-----2-------|-------------|---2-------2-|---0-------0-|||---2---------|-0-----3-----|-2-----------|-0---0-------|||-3-----0-----|-------------|-------3-----|-------2-----|
||
||-------------|-------------|-------------|-------------|||-------------|-------------|-------------|-------------|||-------------|-------------|-------------|-------------|||-------------|-------------|-------------|-------------|||-------------|-------------|-------------|-------------|||-------------|-------------|-------------|-------------|
|-------------|-------------|-------------|-------------|| |-------------|-------------|-------------|-------------|| |-------------|-------------|-------------|-------------|| |-------------|-2---2-5---5-|-4---4-4-----|-4---4-4-----|| |-5---5-2---2-|-0---0-3---3-|-2---2-2-----|-2---2-2-----|| |-3---3-0---0-|-------------|-------------|-------------||
|
|-------------|-------------|-------------|-------------|| |-------------|-------------|-------------|-------------|| |-----------4-|-----4-----4-|-----4-----4-|-----4-----4-|| |-----2-------|-------------|---2---4-----|---2---4-----|| |---2---------|-0-----3-----|-2-----------|-2-----------|| |-3-----0-----|-------------|-------------|-------------||
|
|-------------|-------------|-------------|-------------|| |-------------|-------------|-------------|-------------|| |-------------|-------------|-------------|-------------|| |-------------|-------------|-------9~----|-------8~----|| |-------------|-------------|-------------|-------------|| |-------------|-------------|-------------|-------------||
1st & 2nd Guitar (play 3x):||-------------|-------------|-------------|-------------||||-------------|-------------|-------------|-------------||||-------------|-------------|-------------|-------------||||-5---5-7---7-|-2---2-4---4-|-------------|-------------||||-3---3-5---5-|-0---0-2---2-|-2---2-4---4-|-5---5-2---2-||||-------------|-------------|-0---0-2---2-|-3---3-0---0-||
||
||-------------|-------------|-------------|-------------||||-------------|-------------|-------------|-------------||||-----5-----5-|-----5-----4-|-----4-----4-|-----4-----4-||||---4---------|---4---------|---2---------|-------------||||-3-----5-----|-0-----2-----|-------------|-------------||||-------------|-------------|-0-----2-----|-3-----0-----||
|-------------|-------------|-------------|-------------| |-------------|-------------|-------------|-------------| |-3~----------|-------------|-2~----------|-------------| |-2~----------|-------------|-1~----------|-------------| |-3~----------|-------------|-2~----------|-------------| |-------------|-------------|-------------|-------------|
|
|-------------|-------------|-------------|-------------| |-------------|-------------|-------------|-------------| |-3-----------|-------------|-2-----------|-------------| |-2-----------|-------------|-1-----------|-------------| |-3-----------|-------------|-2-----------|-------------| |-------------|-------------|-------------|-------------|
TONZER-PART:
1st Guitar (plays 2x):||-------------|-------------|-------------|-------------|||-------------|-------------|-------------|-------------|||-------------|-------------|-------------|-5-----4-----|||-5---5-2---2-|-5-5-5-2---2-|-5---5-2---2-|-5-----4-----|||-5---5-2---2-|-5-5-5-2---2-|-5---5-2---2-|-3-----2-----|||-3---3-0---0-|-3-3-3-0---0-|-3---3-0---0-|-------------|
|-------------|-------------|-------------|-------------|| |-------------|-------------|-------------|-------------|| |-3---3-------|-3-3---------|-3-3---------|-4-----------|| |-3---3-4~----|-3-3---4~----|-3-3---4-----|-4-----------|| |-1---1-4~----|-1-1---4~----|-1-1---4-----|-2-----------|| |-------2~----|-------2~----|-------2-----|-------------||
CHORUS:
1st & 3rd Guitar (play 2x)||-------------|-------------|-------------|-------------|||-------------|-------------|-------------|-------------|||-------------|-------------|-------------|-------------|||-------------|-------------|-------------|-------------|||-------------|-------------|-------------|-------------|||-------------|-------------|-------------|-------------|
||
||-------------|-------------|-------------|-------------|||-------------|-------------|-------------|-------------|||-------------|-------------|-------------|-------------|||-------------|-------------|-------------|-------------|||-------------|-------------|-------------|-------------|||-------------|-------------|-------------|-------------|
|-------------|-------------|-------------|-------------|| |-------------|-------------|-------------|-------------|| |-------------|-------------|-------------|-------------|| |-------------|-------------|-------------|-------------|| |-------------|-------------|-------------|-------------|| |-------------|-------------|-------------|-------------||
|
|-------------|-------------|-------------|-------------|| |-------------|-------------|-------------|-------------|| |-------------|-------------|-------------|-------------|| |-------------|-------------|-12b13~------|-9~\---------|| |-------------|-------------|-------------|-------------|| |-------------|-------------|-------------|-------------||
|-------------|-------------|-------------|-------------| |-------------|-------------|-------------|-------------| |-9---9---9---|-------------|-------------|-------------| |-9---9---9---|-9-9---9-----|-5---5---5---|-------------| |-7---7---7---|-9-9---9-----|-5---5---5---|-5-5---5-----| |-------------|-7-7---7-----|-3---3---3---|-2-2---2-----|
|
|-------------|-------------|-------------|-------------| |-------------|-------------|-------------|-------------| |-------------|-------------|-------------|-------------| |-------------|-------------|-------------|-------------| |-------------|-------------|-------------|-------------| |-------------|-------------|-------------|-------------|
|-------------|-------------|-------------|-------------| |-------------|-------------|-------------|-------------| |-------------|-------------|-------------|-------------| |-5---5---5---|-2-2---2-----|-3---3---3---|-2-2---2-----| |-3---3---3---|-2-2---2-----|-1---1---1---|-2-2---2-----| |-------------|-0-0---0-----|-------------|-0-0---0-----|
|
|-------------|-------------|-------------|-------------| |-------------|-------------|-------------|-------------| |-------------|-------------|-------------|-------------| |-------------|-------------|-12b13~------|-9~\---------| |-------------|-------------|-------------|-------------| |-------------|-------------|-------------|-------------|
|-------------|-------------|-------------|-------------| |-------------|-------------|-------------|-------------| |-9---9---9---|-------------|-------------|-------------| |-9---9---9---|-9-9---9-----|-5---5---5---|-------------| |-7---7---7---|-9-9---9-----|-5---5---5---|-5-5---5-----| |-------------|-7-7---7-----|-3---3---3---|-2-2---2-----|
|
|-------------|-------------|-------------|-------------| |-------------|-------------|-------------|-------------| |-------------|-------------|-------------|-------------| |-------------|-------------|-------------|-------------| |-------------|-------------|-------------|-------------| |-------------|-------------|-------------|-------------|
|-------------|-------------|-------------|-------------| |-------------|-------------|-------------|-------------| |-------------|-------------|-------------|-------------| |-5---5---5---|-2-2---2-----|-3---3---3---|-2-2---2-----| |-3---3---3---|-2-2---2-----|-1---1---1---|-2-2---2-----| |-------------|-0-0---0-----|-------------|-0-0---0-----|
|
|-------------|-------------|-------------|-------------| |-------------|-------------|-------------|-------------| |-------------|-------------|-12b13~------|-9~\---------| |-------------|-------------|-------------|-------------| |-------------|-------------|-------------|-------------| |-------------|-------------|-------------|-------------|
OUTRO
1st Guitar:|--------------|-------------|-------------||--------------|-------------|-------------||--------------|-------------|-------------||-9------------|-------------|-------2-----||-7-9-10-7-9-5-|-7-4-5-3-3-3-|-3-3-3-2-----||-0-7--8-5-7-3-|-5-2-3-1-1-1-|-1-1-1-0-----|
Tap to rate this tab
 
# A B C D E F G H I J K L M N O P Q R S T U V W X Y Z