Kat - Odi Profanum Vulgus tab

Kat 
it's fuckin' great song is called "Odi Profanum Vulgus"
from the album "Róże miłości najchętniej przyjmują się na grobach"

tabbed by kunqa

all the song is going something like this. Just listen it to put it and play in the right order. Enjoy!!!!



Intro (x2)|-------------------------------------------------------||-------------------------------------------------------||-------------------------------------------------------||-------------------------------------------------------||-2---------7h8p7~--------------7-----7h8p7-------------||-0-------0-------0-0-5-6-7-0-0---0-0-------0---0-5-6-7-|
|-------------------------------------------------------||-------------------------------------------------------||-------------------------------------------------------||-------------------------------------------------------||-2---------7h8p7~---------------------8h10p8~----------||-0-------0-----------------0-0------0------------------|
|---------------------------------------------------------------||---------------------------------------------------------------||---------------------------------------------------------------||---------------------------------------------------------------||-2---------7-8-7----------------------8h10p8~--------3-2-------||-0-------0-----------------0-0------0--------0-0-0-0-----3~~---|
|---------------------------------||---------------------------------||---------------------------------||---------------------------------||---7---7-----7-----7-----8-------||-0---0---0-0---0-0---0-0-----6~--|
|---------------------------------------------------||---------------------------------------------------||---------------------------------------------------||---------------------------------------------------||---7---7-----7-----7-----8-----------8----------8~-||-0---0---0-0---0-0---0-0-----6~--6666----6666-6----|
Dzieki panie...|---------------------------------||---------------------------------||---------------------------------||---------------------------------||---7---7-----7-----7-----8-------||-0---0---0-0---0-0---0-0-----6~--|
|-----------------------------------------||-----------------------------------------||-----------------------------------------||---------------------------------------2-||---7---7-----7-----7-------------2-3-5---||-0---0---0-0---0-0---0-0-0-2-3-5---------|
Ja nie skamle, nie...|-------------------------------------------------------||-------------------------------------------------------||-------------------------------------------------------||-------------------------------------------------------||-2---------7h8p7~---------------------8h10p8~----------||-0-------0-----------------0-0------0------------------|
|---------------------------------------------------------------||---------------------------------------------------------------||---------------------------------------------------------------||---------------------------------------------------------------||-2---------7-8-7----------------------8h10p8~--------3-2-------||-0-------0-----------------0-0------0--------0-0-0-0-----3~~---|
Jestem smieszny czort...|-------------------------------------------------------||-------------------------------------------------------||-------------------------------------------------------||-------------------------------------------------------||-2---------7h8p7~---------------------8h10p8~----------||-0-------0-----------------0-0------0------------------|
|---------------------------------------------------------------||---------------------------------------------------------------||---------------------------------------------------------------||---------------------------------------------------------------||-2------------------------------------------------------3-2----||-0-0---0---0---0---0-0-0-------0-0---0---0---0-0-0----------3~-|
|--------------------------||--------------------------||--------------------------||--------------------------||-2----------5h7-----------||-0--------0-------0---3h5-|
Tap to rate this tab
 
# A B C D E F G H I J K L M N O P Q R S T U V W X Y Z