Katie Jane Garside - Lesions In The Brain tab

The only place you can actually listen to this song is on Katie Jane Garside's myspace, 
is: www.myspace.com/katiejanegarside
Listen to the structure of the song to understand the pattern.
This is my first tab ever.
I kind of like Katie Jane Garside's music. So I decided to tab Lesions In The Brain. If 
find any errors or mistakes, or you would just like to contact me then email chemical _bees369@yahoo.co.uk

Standard Tuning: E A D g b e
--------------------------------


|-------------|-------------||-------------|-------------||-------------|-------------||----3-5--5---|----3-5------||--5----------|--5----------||----------6-|---------3-6-| x27
|-------------|-------------||-------------|-------------||----3--------|-------------||--5---5--5---|----3-5------||-------------|--5----------||----------6-|---------3-6-|
|-------------|-------------||-------------|-------------||-------------|-------------||----3-5--5---|----3-5------||--5----------|--5----------||----------6-|---------3-6-|
|-------------|-------------||-------------|-------------||----3--------|-------------||--5---5--5---|----3-5------||-------------|--5----------||----------6-|---------3-6-|
|-------------|-------------||-------------|-------------||-------------|-------------||----3-5--5---|----3-5------||--5----------|--5----------||----------6-|---------3-6-| x11
|-------------|-------------||-------------|-------------||----3--------|-------------||--5---5--5---|----3-5------||-------------|--5----------||----------6-|---------3-6-|
|-------------|-------------||-------------|-------------||-------------|-------------||----3-5--5---|----3-5------||--5----------|--5----------||----------6-|---------3-6-| x2
|-------------=---------|-----------------------||-----------------------|-----------------------||----3-----3------------|-----------------------||--5---5-5---5---3-5-5--|---3-5---3-5---3-5-----||--------------5--------|-5-----5-----5---------||---------------------6|-------------------3-6-|
|-------------|-------------||-------------|-------------||-------------|-------------||----3-5--5---|----3-5------||--5----------|--5----------||----------6-|---------3-6-| xrepeat til end.
That's it :) That was pretty easy. Any questions, just ask. http://www.katiejanegarside.com/
Tap to rate this tab
 
# A B C D E F G H I J K L M N O P Q R S T U V W X Y Z