Keith Urban - Youll Think Of Me Acoustic tab

----------------------------------------------------------------------------
                    Keith Urban-You'll Think of Me (Acoustic)
----------------------------------------------------------------------------

| /  slide up
| \  slide down
| h  hammer-on
| p  pull-off
| ~  vibrato
| () lightly played note

Here's my first tab.  I think it's pretty accurate.  If you think something is wrong 
it to jeremey_d@hotmail.com.

Tuning:  Standard

The song is played with a capo on the 2nd fret.

Intro.

e---------0----------|--------0-------|---------0---------|B----3------3---3----|----0--------3--|----3------3---3---|G---0--0-----0---0-0-|---0--0---0---0-|---0--0-----0---0--|D--2----2-----2---2--|--2----2---2----|--2----2-----2---2-|A--------------------|-3--------------|-------------------|E-0------------------|----------------|-0-----------------|
-------------------------|--------0---------|-5/-7/-10/-12--12/14\5~~~|----3-----3---3---|-------------------------|---0--0----0-0-0--|-------------------------|--2----2----2---0-|-------------------------|------------------|-------------------------|-0----------------|
----------------------------------|----------0--------|---0-------------|----------------------------------|-----3------3---3--|---3--* Strum *--|--4-2-0---------------------------|----0--0-----0-0---|---0--* close *--|----------0h2-5----0h2-5----5p2p0-|---2----2-----2----|---2--* to *--|-3-------------(3)------(3)-------|-------------------|---3--* the *--|----------------------------------|-0-----------------|------* bridge*--|
------3----------|--------0h2-----------|---3---3---------|----3------3----------|----0---0-----0--|---2-2------2------2--|--0--0---------0-|--0---0------0------0-|----------0h2----|-0-------------0h2----|-3---------------|----------------------|
--------0-----------|--------3-------------|----0----0----------|----1----1------------|---0-0----0------0--|---0-0----0-----------|--2---2----2------2-|--2---2----2--0h2-2p0-|--------------------|-3--------------------|-0-----------0h2----|----------------------|
Verse 1
---------------|--------3--------|-----------------|---------0---0---|---------------|----1----1-------|----3--------3---|-----3----3---3--|----0------0---|---0-0----0------|---0-0----0---0--|--2---2----2---2-|---2-2---2--2--|--2---2----2-0h2-|--0---0--0-0---0-|-0-0---0---------|--2---2-2-2--2-|-3---------------|-----------------|-----------------|-0-----0-------|-----------------|-3------3--------|-----------------|
---------------|--------3--------|-----------------|---------------|----1----1-------|----3--------3---|----0------0---|---0-0----0------|---0-0----0---0--|---2-2---2--2--|--2---2----2-0h2-|--0---0--0-0---0-|--2---2-2-2--2-|-3---------------|-----------------|-0-----0-------|-----------------|-3------3--------|
------0h2-3p2-----------|---3---------3--3-------|--2-2----0----2---------|-0-------------0--------|--------------------3p2-|------------------------|
Pre-Chorus The picking pattern is an educated guess. A lot is played softly, much like the first verse.
-------------------|------------|--------------------|------1-------1----|------------|-1----1-------1---1-|---2---2---2---2---|----0---0-0-|-2-2---2-2-----2--2-|--2-2---2-2-2---2--|---2-2-2--2-|-3--3---3--3-3--3-3-|-0-------0-------0-|--2---2---2-|-3----------3-----3-|-------------------|-0--------0-|--------------------|
Chorus
-------3----------3----|------0--------0----|---------------------|---3----3-----3----3---|---3---3-3---3--3-3-|------3---------3----|-----0---0------0---0--|--2-2---2---2-2--2--|---0---0-0---0---0-0-|--0-------0--0-------0-|-0---------0--------|--2-2---2---2-2---2--|-----------------------|--------------------|---------------------|-3----------3----------|--------------------|-0---------0---------|
---0---* This *--|---3---* measure *--|---0---* is *--|---2---* very *--|---3---* softly *--|-------* strummed *--|
Listen to the song to get the strumming patterns for these chords. It sounds like there a lot of up strokes.
---3------------|---0------------|---0------------|---0------------|---3------------|---3------------|---3------------|---3------------|---0------------|---2------------|---0------------|---0------------|---0------------|---0------------|---2------------|---2------------|---2------------|----------------|---2------------|---3------------|---3------------|----------------|---0------------|----------------|
-3------------0h2-3p2p0------------|-3---------3-----------3-----------|-0--------2-2------------4-2-0-----|-0-------0---------------------4-0-|-2-0h2-----------------------------|-3---------------------------------|
Verse 2 Again, listen to the song to get the strumming patterns for these chords.
---0------------|---0------------|---3------------|---0--3--2--0---|---3------------|---3------------|---3------------|---3--3--3--3---|---0------------|---0------------|---0------------|---2--2--2--2---|---2------------|---2------------|---0------------|---0--0--0--0---|---2------------|---3------------|---2------------|----------------|---0------------|----------------|---3------------|----------------|
---0------------|---0------------|---3------------|---0--0h2-------|---3------------|---3------------|---3------------|---3--3---------|---0------------|---0------------|---0------------|---2--2---------|---2------------|---2------------|---0------------|---0--0---------|---2------------|---3------------|---2------------|----------------|---0------------|----------------|---3------------|----------------|
Pre-Chorus
----------------|---0------------|---1------------|---1------------|---3------------|---1------------|---2------------|---0------------|---2------------|---2------------|---2------------|---3------------|---0------------|---2------------|---3------------|----------------|---0------------|----------------|
Chorus
---3------------|---2--3p2-------|---0------------|---0------------|---3------------|---3--3---------|---3------------|---3------------|---0------------|---2--2---------|---0------------|---0------------|---0------------|---0--0---------|---2------------|---2------------| x2---2------------|----------------|---2------------|---3------------|---3------------|----------------|---0------------|----------------|
Bridge Some........day...........mind...............fine...
---1------------|----------------|---0------------|---0------------|---1------------|---1------------|---3------------|---3------------|---2------------|---2------------|---0------------|---2------------|---3------------|---2------------|---2------------|---0------------|---3------------|---0------------|---2------------|----------------|----------------|----------------|---0------------|----------------|
While....pride................you...............on
---1------------|----------------|---0------------|---1------------|---1------------|---1------------|---3------------|---1------------|---2------------|---2------------|---0------------|---2------------|---3------------|---2------------|---2------------|---3------------|---3------------|---0------------|---2------------|---3------------|----------------|----------------|---0------------|----------------|
Chorus "2"-Variation of the Chorus. So take your...........
---------3--------|-------3--------|----------------|----------0----0----|-----3----3--3--3-|---3----3--3--3-|---3-------3----|------3----3----3---|----0-0----0--0---|--0-0----0--0---|--0-0-0--0--0-0-|---2---2----2----2--|-0/5---5----5--5--|-5---5----5--5--|-5---5--5-5--5--|--0-0---0----0----0-|------------------|----------------|----------------|--------------------|------------------|----------------|----------------|--------------------|
take your memories.........
------0-------0----|-----------------------|---3------------|---3---3-3---3-3---|------3-----3-----3--3-|---3------------|--0-0---0---0---0--|---0---0-0---0-0--0--0-|---0------------|-2---------2-----2-|--2-2---2-----2---2--2-|---0------------|-------------------|-3----------------3--0-|---2------------|-------------------------------------------|---3------------|
---2--3p2-------|---3--3---------|---2--2---------|---0--0---------|----------------|----------------|
weather......
---0---0---3---2--2h3-|---3---3---3---3--3---|---0---0---0---2--2---|---2---2---0---0--0---|---2---3---2----------|---0-------3----------|
Chorus
---3------------|---2------------|---0------------|---0------------|---3------------|---3------------|---3------------|---3------------|---0------------|---2------------|---0------------|---0------------|---0------------|---0------------|---2------------|---2------------| x2---2------------|----------------|---2------------|---3------------|---3------------|----------------|---0------------|----------------|
Outro
---3------------|---2------------|---0------------|---0------------|---3------------|---3------------|---3------------|---3------------|---0------------|---2------------|---0------------|---0------------|---0------------|---0------------|---2------------|---2------------| x6---2------------|----------------|---2------------|---3------------|---3------------|----------------|---0------------|----------------|
Tap to rate this tab
 
# A B C D E F G H I J K L M N O P Q R S T U V W X Y Z