Keith Urban - Dont Shut Me Out Acoustic tab

-------------------------------------------------------------------
             Keith Urban-Don't Shut Me Out (Acoustic)
-------------------------------------------------------------------

| /  slide up
| \  slide down
| h  hammer-on
| p  pull-off
| ~  vibrato
| () lightly played note

Here's my second tab.  I think it's pretty close.  If you think something is wrong send
to jeremey_d@hotmail.com.
As seen on "Livin' Right Now".

Tuning:  Standard


Intro.

Intro. and Verses are played with pick.

e------------------------------|----------------------------|B----3---------3---------------|--3---------3---------------|G---2-2---2-----2--------------|-2-2----2----2--------------|D--0-----0---0-----------0h2-0-|-------0---0-----2h4p2p0--0-|A------------------0h2h4-------|-------------------------2--|E-------2---3----3-------------|-----2----3----3------------|
------------------------------|------------------------------|----3---------3---------------|--3---------3-----------------|---2-2---2-----2--------------|-2-2----2----2----------------|--------0---0-----------0h2-0-|-------0---0-----2h4p2p0----0-|------------------0h2h4-------|-------------------------0h2--|-------2---3----3-------------|-----2----3----3--------------|
Verse 1
------------------------------|----------------------------|----3---------3---------------|--3---------3---------------|---2-2---2-----2--------------|-2-2----2----2--------------|--0-----0---0-----------0h2-0-|-------0---0-----2h4p2p0--0-|------------------0h2h4-------|-------------------------2--|-------2---3----3-------------|-----2----3----3------------|
------------------------------|-------------------------|----3---------3---------------|--3---------3----3-2-----|---2-2---2-----2--------------|-2-2----2----2-------4-2-|--------0---0-----------0h2-0-|-------0---0-------------|------------------0h2h4-------|-------------------------|-------2---3----3-------------|-----2----3----3---------|
Chorus Chorus finger picked. The rows of "x's" mark a slapping of the strings with your palm.
----x----0--x-------x----0--x-------x----0--x--------x---2---x-------x-|-3--x-----3-x----3--x-----3-x----3--x-----3-x--2-2h3-x----3--x----3--x-|-2--x-------x----2--x-------x----2--x-------x--2-----x-------x----2--x-|----x-------x-------x-------x-------x-------x-(4)----x-------x-------x-|----x-------x-------x-------x-------x-------x--2-----x--2----x-------x-|-3--x--3----x--3-2--x--2----x--2-3--x--3----x--------x-------x--0-3--x-|
These chords are quickly plucked, then raise hand that holds it (if you're right-handed, it would be your left to make a quick kind of muffled sound. || || || || \/ \/ \/ \/----0--x-------x----0--x-------x----0--x------0------x-----|-----3-x----3--x-----3-x----3--x-----3-x--3-3--3-3-3-x--2--|-------x----2--x-------x----2--x-------x--2-2----2-2-x--2--|-------x-------x-------x-------x-------x-------------x-----|-------x-------x-------x-------x-------x-------------x-----|--3----x--3-2--x--2----x--2-3--x--3----x--3-3----3-3-x--0--|
Bridge to verse 2
------------------------------|------------------------------|----3---------3---------------|--3---------3-----------------|---2-2---2-----2--------------|-2-2----2----2----------------|--0-----0---0-----------0h2-0-|-------0---0-----2h4p2p0----0-|------------------0h2h4-------|-------------------------0h2--|-------2---3----3-------------|-----2----3----3--------------|
Verse 2
------------------------------|------------------------------|----3---------3---------------|--3---------3-----------------|---2-2---2-----2--------------|-2-2----2----2----------------|--0-----0---0-----------0h2-0-|-------0---0-----2h4p2p0----0-|------------------0h2h4-------|-------------------------0h2--|-------2---3----3-------------|-----2----3----3--------------|
------------------------------|-------------------------|----3---------3---------------|--3---------3----3-2-----|---2-2---2-----2--------------|-2-2----2----2-------4-2-|--------0---0-----------0h2-0-|-------0---0-------------|------------------0h2h4-------|-------------------------|-------2---3----3-------------|-----2----3----3---------|
Chorus
----x----0--x-------x----0--x-------x----0--x------2-x-------x------x-|-3--x-----3-x----3--x-----3-x----3--x-----3-x--3--3--x---3-2-x---3--x-|-2--x-------x----2--x-------x----2--x-------x--2-----x-------x---2--x-|----x-------x-------x-------x-------x-------x-(4)----x-------x------x-|----x-------x-------x-------x-------x-------x--2-----x--2----x------x-|-3--x--3----x--3-2--x--2----x--2-3--x--3----x--------x-------x-0-3--x-|
----0--x-------x----0--x-------x----0--x----0------x-----x-------x-|-----3-x----3--x-----3-x----3--x-----3-x---3-3-x-3-x--2--x----2--x-|-------x----2--x-------x----2--x-------x--2----x-2-x--2--x---2---x-|-------x-------x-------x-------x-------x-----------x-----x-------x-|-------x-------x-------x-------x-------x-----------x-----x-------x-|--3----x--3-2--x--2----x--2-3--x--3----x---------3-x--0--x--0----x-|
----x----0--x-------x----0--x-------x----0--x--------x-------x------x-|-3--x-----3-x----3--x-----3-x----3--x-----3-x--3--3--x---3---x---3--x-|-2--x-------x----2--x-------x----2--x-------x--2-----x----2--x---2--x-|----x-------x-------x-------x-------x-------x-(4)----x-------x------x-|----x-------x-------x-------x-------x-------x--2-----x--2----x------x-|-3--x--3----x--3-2--x--2----x--2-3--x--3----x--------x-------x-0-3--x-|
Not sure about this part. || || || \/ \/ \/----0--x-------x----0--x----------|------------------------|-----3-x----3--x-----3-x----------|-------2-3-2h3p2------3-|-------x----2--x-------x----------|---0-4-----------4-2--2-|-------x-------x-------x--2-4-5-7-|--4---------------------|-------x-------x-------x----------|------------------------|--3----x--3-2--x--2----x----------|----------------------3-|
Outro.
------------------------------|------------------------------|----3---------3---------------|--3---------3-----------------|---2-2---2-----2--------------|-2-2----2----2----------------|--0-----0---0-----------0h2-0-|-------0---0-----2h4p2p0----0-|------------------0h2h4-------|-------------------------0h2--|-------2---3----3-------------|-----2----3----3--------------|
------------------------------|----------0-|----3---------3---------------|--3-------3-| Strum closely---2-2---2-----2--------------|-2-2----2-2-| to the bridge.--------0---0-----------0h2-0-|-------0--0-|------------------0h2h4-------|------------|-------2---3----3-------------|-----2----3-|
Tap to rate this tab
 
# A B C D E F G H I J K L M N O P Q R S T U V W X Y Z