Kid Rock - Roving Gangster tab

T1: Rob Harrand, basil_faulty25@yahoo.com, Kid Rock, Roving Gangster 

 S1: Song: Roving Gangster 
 Band: Kid Rock 
 Album: Devil without a cause 
 Tabbed by: Rob Harrand  
 homepage: http://www.freak82.freeserve.co.uk 
 ICQ: 1553349 

 ----------------------------------------------------------------------------------------


 Downtune 1 step 

 This is the main riff of the song, 

X----------------------------- X----------------------------- X----------------------------- X----------------------------- X----------------------7-5---- X--5-7-7-7-7-7-7-5-7---------- <- Palm mute where necessary
This is in the background at one point,
X----------------------------- X----------------------------- X---------------------9-7----- X--7-9-9-9-9-9-9-7-9---------- X----------------------------- X-----------------------------
Chorus riff,
X--------------------------------------------- X--------------------------------------------- X--7-9-9-9-9------------7-9-9-9-9------------- X--7-9-9-9-9--0-0-0--5--7-9-9-9-9--5-5-5-7---- X--5-7-7-7-7--0-0-0--5--5-7-7-7-7--5-5-5-7---- X--------------------3-------------3-3-3-5----
Middle of chorus you hear this,
X----------------------------- X----------------------------- X----------------------------- X----------------------------- X----------------------------- X--3-5-5-3-5-5^-5-3-0---------
"I got 3 LP's but I ain't got no hits......",
X-------- X-------- X-------- X--7-9---
X--7-9--- <- Strum (799) 15 times X--5-7---
Next bit,
X----------------------------- X----------------------------- X----------------------------- X---9-9-9-9-9-9-9-9-9-9-9-9--- etc... X----------------------------- X--7-7-7-7-7-7-7-7-7-7-7-7----
Final bit,
X----------------------------- X----------------------------- X----------------------------- X--------5-------------------- X--5-7-7---5-7-7-------------- X----------------3------------
---------------------------------------------------------------------------------------- August 31st 99
Tap to rate this tab
 
# A B C D E F G H I J K L M N O P Q R S T U V W X Y Z