Killswitch Engage - My Last Serenade tab

|--------------------------------------||--------------------------------------||--------------------------------------| x4|-1h4p0----1h4p0----1h4p0--------------||-1h4p0-00-1h4p0-00-1h4p0-00-----------||-1h4p0-00-1h4p0-00-1h4p0-00-1340-2450-| ** ** ** **** ****
Gtr 1 & 2|--------------------------------------------------||--------------------------------------------------||--------------------------------------3-----------| x 4|-1-----------------------1------------3-----------| |-1-0-1-3-1-0--0-1-3-1-0--1-0-1-3-1-00-1-00-3-00-5-||-1-0-1-3-1-0--0-1-3-1-0--1-0-1-3-1-00---00-3-00-5-| * * * * * * * * * * * * * * ** ** **
|-------------------------------------||-------------------------------------||-------------------------------------| x3|-1h4p0----1h4p0----1h4p0-------------||-1h4p0-00-1h4p0-00-1h4p0-00----------||-1h4p0-00-1h4p0-00-1h4p0-00-1340-2450| ** ** ** **** ****
|--------------------------------||--------------------------------||--------------------------------||-1h4p0----1h4p0----1h4p0--------||-1h4p0-00-1h4p0-00-1h4p0-00-000-||-1h4p0-00-1h4p0-00-1h4p0-00-000-|
** ** ** ***Gtr 1 & 2 end on|-------------------------------------------------------|-----||-------------------------------------------------------|-----||-------------------------------------------------------|-----| x 4|-3p0------0-----0-----0---10--10--10/10--5/7\5---3/5\3-|-----||-3p0-0000-0-000-0-000-0-0-8---7---7-/8---3/5\3---1/3\1-|-12\-||-3p0-0000-0-000-0-000-0-0---0---0------0-------0-------|-12\-| **** *** *** * * * * *
Gtr 1|------------------------------------------------||-666-6555-5666-6555-5666-6555-------------------||-555-5555-5555-5555-5555-5555-------------------| x 4|-333-3333-3333-3333-3333-3333----2-3p2------2h3-| |------------------------------------------3-----||------------------------------03-------03-------| ** **
Gtr 2|-------------------------------------------------||-------------------------------------------------||-----------555-5555-5333-3333--------------------| x 4|-000-0000-0555-5555-5333-3333-----2-3p2------2h3-||-000-0000-0333-3333-3111-1111--------------3-----||-000-0000-0--------------------03-------03-------|
** **Gtr 1 & 2|-------------------||-------------------||-------------------| x 4|------10h12--------| |----8-------10\8~~-||-07----------------| **
Gtr 1 & 2|------------------------------------------||------------------------------------------||------------------------------------------| x 3|----------------------3------10h12--------| |-000000-000000-000000-3----8-------10\8~~-||-000000-000000-000000-3-07----------------| ****** ****** ****** **
|------------||------------||------------||------------||------3p2---||-8-00-----0-| ** *
Gtr 1|--------------------------------------------------||--------------------------------------------------||--------------------------------------3-----------| x 4|-1-----------------------1------------3-----------| |-1-0-1-3-1-0--0-1-3-1-0--1-0-1-3-1-00-1-00-3-00-5-||-1-0-1-3-1-0--0-1-3-1-0--1-0-1-3-1-00---00-3-00-5-| * * * * * * * * * * * * * * ** ** **
Gtr 2|-----------------------------------||-3-3333333333333333333333333333333-||-5b7777777777777777777777777777777-||-----------------------------------||-----------------------------------||-----------------------------------|
|------------------------------------------------||-6-6-6-6-6-6-6-6-6-6-6-6-6-6-6-6-3-333333333333-||-8b1010101010101010101010101010105b777777777777-||------------------------------------------------||------------------------------------------------||------------------------------------------------|
Gtr 1 & 2 |-------------------------------------------------------|-----||-------------------------------------------------------|-----||-------------------------------------------------------|-----| x 4|-3p0------0-----0-----0---10--10--10/10--5/7\5---3/5\3-|-----||-3p0-0000-0-000-0-000-0-0-8---7---7-/8---3/5\3---1/3\1-|-12\-||-3p0-0000-0-000-0-000-0-0---0---0------0-------0-------|-12\-| **** *** *** * * * * *
Gtr 1|------------------------------------------------||-666-6555-5666-6555-5666-6555-------------------||-555-5555-5555-5555-5555-5555-------------------| x 3|-333-3333-3333-3333-3333-3333----2-3p2------2h3-| |------------------------------------------3-----||------------------------------03-------03-------| ** **
Gtr 2|-------------------------------------------------||-------------------------------------------------||-----------555-5555-5333-3333--------------------| x 2|-000-0000-0555-5555-5333-3333-----2-3p2------2h3-||-000-0000-0333-3333-3111-1111--------------3-----||-000-0000-0--------------------03-------03-------| ** **
|-------------------------------------------------||-------------------------------------------------||-----------555-5555-5333-3333--------------------||-000-0000-0555-5555-5333-3333-----5-7p5------7p5-||-000-0000-0333-3333-3111-1111--------------7-----||-000-0000-0--------------------07-------07-------| ** **
Gtr 1|----------------------------------||-666-6555-5666-6555-5-6-----------||-555-5555-5555-5555-5-5-----------||-333-3333-3333-3333-3-3-----------| |----------------------------------||----------------------------------|
Gtr 2|-------------------------------------------||-------------------------------------------||------------------------------10-----------||-000-0000-0101010-10101010-10-10-----------||-000-0000-0101010-10101010-10-8------------||-000-0000-0101010-10101010-10-8------------|
Tap to rate this tab
 
# A B C D E F G H I J K L M N O P Q R S T U V W X Y Z