Killswitch Engage - Life To Lifeless tab version 2

This is just the way I play the song ;)
Make sure you read the tab carefully and correctly before you say anything.
KSE RULZ!!!!

-INTRO:d|---------------------------------------------------|a|---------------------------------------------------|f|---------------------------------------------------|c|-00-00---------00-00-00---------00-00-00--------00-|g|-00-00--000000-00-00-00--000000-00-00-00-000000-00-|c|-00-00--000000-00-00-00--000000-00-00-00-000000-00-|
.. .. ...... .. .. .. ...... .. .. .. ...... ..Guitar 2:|----------------------------||--------------8~---9~---3~--||(pick slide)--7~---8~---2~--||-///////////--5~---6~---0~--||-///////////--5~---6~---0~--||------------------------0~--|
|--------------------||--------------------||--------------------||-00-00--------------||-00-00-000000-------||-00-00-000000--12\--|
-VERSE:|---------------------------------------||-8--------9---------3------------------||-7--------8---------2------------------||-5--------6---------0------------------||-5--------6---------0------------------||---0-0--0----0-0--0----0-0-0--000-0--0-| . . . . . . . . . ... . .
-0:40 is same riff as intro
0:50 guitar comes in.Repeat as many times as needed|------------------------||------------------------||------------------------||------------------------||------------------------||-000~-000~--000000-000~-| ... ... ...... ...-VERSE 2 (same as verse 1)
-CHORUS|--------------------------------------------------------------||-----------------------------------------------------x-x-x-x--||-----------------------------------------------------x-x-x-x--||-5/7--5------5~--5-----5--------5/7--5-----0~--------x-x-x-x--||-3/5--3--0-3-3~--3-----3--------3/5--3-3-3-0~-0------x-x-x-x--||---------0-2-3~--3-3-3-3-3-3-3---------2-3-0~-0-0-0-----------| . . . . . . . . . . .
-------------------------------------------------------------|-------------------------------------------------------------|-------------------------------------------------------------|-5/7--5------5~--5-----5--------5/7--5-----0~----------------|-3/5--3--0-3-3~--3-----3--------3/5--3-3-3-0~-0------0-------|---------0-2-3~--3-3-3-3-3-3-3---------2-3-0~-0-0-0--0-0-0-0-| . . . . . . . . . . . . . .
-BRIDGE:|------------------------------------------------||------------------------------------------------||------------------------------------------------||------------------------------------------------||-5h8p5p0-------------------5h8p5p0--------3~-6~-||--------3h7p3p0-0000000000--------3h7p3p0-3~-6~-|
..........-------------------------------------------------|-------------------------------------------------|-------------------------------------------------|-------------------------------------------------|-5h8p5p0-------------------5h8p5p0--------3~-8~--|--------3h7p3p0-0000000000--------3h7p3p0-3~-8~--|
..........-1:44|---------------------------------------------||---------------------------------------------||---------------------------------------------||---------------------------------------------||-5h8p5p0--------0----------5h8p5p0-----3~-6~-||--------3h7p3p0-0-----------------3h7p-3~-6~-|
.----------------------------------------------|----------------------------------------------|----------------------------------------------|----------------------------------------------|-5h8p5p0--------0-----------5h8p5p0----3~-8~--|--------3h7p3p0-0------------------3h7-3~-8~--|
.-2:004x|---------------------------------||---------------------------------||---------------------------------||---------------------------------||-3-3-3-3-4-4-4-4-0-0-0-0-000-0-0-||-5-5-5-5-6-6-6-6-0-0-0-0-000-0-0-| . . . . . . . . . . . . ... . .
|-------------------||-------------------||-------------------||-------------------||-00-00--000000-----||-00-00--000000-12/-| .. .. ......
-VERSE 3 (same as the other verses) -CHORUS 2 (same as chorus 1)
-OUTRO|---------------------------------------||---------------------------------------||-777777777777777--10101010101010101010-||---------------------------------------||-555555555555555--8888888888888888888--||---------------------------------------|
---------------------------------------|---------------------------------------|-141414141414141414141414141414--10-15-|---------------------------------------|-121212121212121212121212121212--8--13-|---------------------------------------|
Thats pretty much it..... any mistakes or something just tell me :)
Tap to rate this tab
 
# A B C D E F G H I J K L M N O P Q R S T U V W X Y Z