Killwhitneydead - Save Your Sermons For Sunday tab

www.killwhitneydead.com

* - harmonic
h - hammer on
. - palm mute
p - pull off


guitar 1

----------------------------------------------|----------------------------------------------|----------------------------------------------|---------------------------0-3-0-2------------| 4X---------------------------0-3-0-2------------|536350---536350---53650----0-3-0-2------------|...... ...... .....
guitar 2
----------------------------------------------|----------------------------------------------|----------------------------------------------|---------------------------0-3-0-2------------| 4x-----11*------11*------11*-0-3-0-2------------|00000----00000----00000----0-3-0-2------------|..... ..... ....._______________________________________________________
guitar 1
-----------------------------------------|-----------------------------------------|-----------------------------------------|-0---------------------0-3-3-0-----------| 4x-0---------------------0-3-3-0-----------|-0---------------------0-3-3-0-----------|
guitar2
-----------------------------------------|-----------------------------------------|-----------------------------------------|-0---------------------0-3-3-0-----------| 4x-0---------------------0-3-3-0-----------|-0--14h16-16-14h16-14--0-3-3-0-----------|
____________________________________________________________ guitar 1
-------------------------------------------|-------------------------------------------|-------------------------------------------|----------------------------0-3-0-2--------| 4X----------------------------0-3-0-2--------|536350---536350---535650----0-3-0-2--------|...... ...... ......
guitar 2
-------------------------------------------|-------------------------------------------|-------------------------------------------|----------------------------0-3-0-2--------| 4x-----11*------11*------11*--0-3-0-2--------|00000----00000----00000-----0-3-0-2--------|..... ..... .....
____________________________________________________________ guitar 1
-----------------------------------------|-----------------------------------------|-----------------------------------------|-0---------------------0-3-3-0-----------| 4x-0---------------------0-3-3-0-----------|-0---------------------0-3-3-0-----------|
guitar2
-----------------------------------------|-----------------------------------------|-----------------------------------------|-0---------------------0-3-3-0-----------| 4x-0---------------------0-3-3-0-----------|-0--14h16-16-14h16-14--0-3-3-0-----------|
_____________________________________________________________ guitar 1
-------------------------------------------|-------------------------------------------|-------------------------------------------|----------------------------0-3-0-2--------| 4X------7*-------7*------7*---0-3-0-2--------|536350---536350--53650------0-3-0-2--------|
guitar 2 solo
------------------------------------------------------|15p14p13p12p15p14p13p12p15p14p13p12p15p14p13p12p------|------------------------------------------------------|------------------------------------------------------|------------------------------------------------------|------------------------------------------------------|
guitar 2 solo (cont)
------------------------------------------------------|15p14p13p12p15p14p13p12p15p14p13p12p15p14p13p12p------|------------------------------------------------------|------------------------------------------------------|------------------------------------------------------|------------------------------------------------------|
guitar 2 solo (cont)
--------------------------------------------------------|17p16p15p14p17p16p15p14p17p16p15p14p17p16p15p14p--------|--------------------------------------------------------|--------------------------------------------------------|--------------------------------------------------------|--------------------------------------------------------|
guitar 2 solo (cont)
--------------------------------------------------------|17p16p15p14p17p16p15p14p17p16p15p14p17p16p15p14p--------|--------------------------------------------------------|--------------------------------------------------------|--------------------------------------------------------|--------------------------------------------------------|
guitar 2 solo (cont)
15p14p13p12p15p14p13p12p15p14p13p12p15p14p13p12p------|------------------------------------------------------|------------------------------------------------------|------------------------------------------------------|------------------------------------------------------|------------------------------------------------------|
guitar 2 solo (cont)
15p14p13p12p15p14p13p12p15p14p13p12p15p14p13p12p------|------------------------------------------------------|------------------------------------------------------|------------------------------------------------------|------------------------------------------------------|------------------------------------------------------|
guitar 2 solo end
17p16p15p14p17p16p15p14p17p16p15p14p17p16p15p14p------|------------------------------------------------------|------------------------------------------------------|------------------------------------------------------|------------------------------------------------------|------------------------------------------------------|
guitar 2 solo end
17p16p15p14p17p16p15p14p17p16p15p14p17p16p15p14p------|------------------------------------------------------|------------------------------------------------------|------------------------------------------------------|------------------------------------------------------|------------------------------------------------------|
__________________________________________________________ guitar 1
----------------------------------------------|----------------------------------------------|----------------------------------------------|---------------------------0-3-0-2------------| 4X---------------------------0-3-0-2------------|536350---536350---53650----0-3-0-2------------|...... ...... .....
guitar 2
------------------------------------------|------------------------------------------|------------------------------------------|----------------------------0-3-0-2-------| 4x-----11*------11*------11*--0-3-0-2-------|00000----00000----00000-----0-3-0-2-------|..... ..... .....
_____________________________________________________________
guitar 1--------------------------------------------|--------------------------------------------|--------------------------------------------|--------------------------------------------| 4x-000000---000000---000000---000000----------|-000000---000000---000000---000000----------|
guitar 2--------------------------------------------|--------------------------------------------|--------------------------------------------|--------------------------------------------| 4x-000000---000000---000000---000000----------|-000000---000000---000000---000000----------|
__________________________________________________________ outro
guitar 1---------------------------------------------|---------------------------------------------|---------------------------------------------|--0-3-0-2------------------------------------|--0-3-0-2------------------------------------|--0-3-0-2------------------------------------|
guitar 2---------------------------------------------|---------------------------------------------|---------------------------------------------|--0-3-0-2------------------------------------|--0-3-0-2------------------------------------|--0-3-0-2------------------------------------|
Tap to rate this tab
 
# A B C D E F G H I J K L M N O P Q R S T U V W X Y Z