Kind Of Like Spitting - Tyco Racing Set And A Christmas Story Fifteen Times tab

Artist: Kind of Like Spitting
Track: Tyco racing set and a Christmas story fifteen times
Tabber: Andrew Biles

There's quite a bit to learn in this song, but once you get to know all the parts then
it's a great track to play.  There's a lot of sections that involve multiple guitars
(usually two), and to figure out what guitar does what I've been panning my stereo and
right so that the majority of the parts are correct, whether you play them that way is
up to you.
There's still a couple of parts missing for the second guitar, mainly later on in the
track where you hear the intro theme again, I'm sure there's about three guitars going
on there so it's making it hard to pick out specific ones, and also the feedback guitar
in the second verse (I don't think I'll ever work that out).
Only a few simple things for you to work out in this track for yourself, the amount of
times sections are played, it's only really the first verse and chorus's (the powerchord
sections).

Standard tuning

Four bar drum intro

|-------------------7--9-7-9-11-12-11-9-11-11-9/7--|-7--9-7---7--9-7-9--------------------------------|--------4-----------------------------------------|--------------------------------------------------|--------------------------------------------------|--------------------------------------------------
-------------------7--9-7-9-11-12-9-12/-----------------7--7--9-7---7--9-7-9-----------------------7--9-7-------------------4---------------------------------------4-8p6p4---------------------------------------------------------------------------------------------------------------------------------------------------------------------------------
---------------------------/9--9-11-6------7-7-7-7-7-7-7-7-11-11-11-11-11-11-11-11-|-7--9-7-------5-----5-5--------------------x-x-x-x-x-x-x-x-x--x--x--x--x--x--x--x--|--------4--/8---4-6-----6--------------x-x-4-4-4-4-4-4-4-4-8--8--8--8--8--8--8--8--|---------------------------------------x-x-----------------------------------------|---------------------------------------x-x-----------------------------------------|-----------------------------------------------------------------------------------|
|-------------------------------------------------------------------------||-------------------------------------------------------------------------||-6-6-6-6-6-4-6-8-9-9-9-9-9-8-11--4-4-4-4-4-4-4-4-11-11-11-11-3--3--3--3--||-x-x-x-x-x-x-x-x-x-x-x-x-x-x-x---x-x-x-x-x-x-x-x-x--x--x--x--x--x--x--x--||-4-4-4-4-4-2-4-6-7-7-7-7-7-6-9---2-2-2-2-2-2-2-2-9--9--9--9--1--1--1--1--||-------------------------------------------------------------------------|
| Guitar 1 || ||-------------------------------------------------------------------------||-------------------------------------------------------------------------||-6-6-6-6-6-4-6-8-9-9-9-9-9-8-11--4-4-4-4-4-4-4-4-4--4--4--4--11-11-11-11-||-x-x-x-x-x-x-x-x-x-x-x-x-x-x-x---x-x-x-x-x-x-x-x-x--x--x--x--x--x--x--x--||-4-4-4-4-4-2-4-6-7-7-7-7-7-6-9---2-2-2-2-2-2-2-2-2--2--2--2--9--9--9--9--||-------------------------------------------------------------------------| Guitar 2
|---------------------------------0---0-0-0-0-0-0-0-0-0-0-0-0---0--||---------------------------------0---0-0-0-0-0-0-0-0-0-0-0-0---0--||-6-6-6-6-6-4-6-8-9-9-9-9-9-8-11--3h4-4-4-4-4-3-3-3-3-3-3-3-3---3--||-x-x-x-x-x-x-x-x-x-x-x-x-x-x-x---4---4-4-4-4-4-4-4-4-4-4-4-4---4--||-4-4-4-4-4-2-4-6-7-7-7-7-7-6-9---4---4-4-4-4-4-4-4-4-4-4-4-4---4--||------------------------------------------------------------------|
| Guitar 1 || ||------------------------------------------------------------------||------------------------------------------------------------------||-6-6-6-6-6-4-6-8-9-9-9-9-9-8-11--3/4-4-4-4-4-3-3-3-3-3-3-3-3---3--||-x-x-x-x-x-x-x-x-x-x-x-x-x-x-x---x---x-x-x-x-x-x-x-x-x-x-x-x---x--||-4-4-4-4-4-2-4-6-7-7-7-7-7-6-9---1/2-2-2-2-2-1-1-1-1-1-1-1-1---1--||------------------------------------------------------------------| Guitar 2
|-------------------------------------------------------------------||-------------------------------------------------------------------||-6-6-6-6-6-6-6-6-9-9-9-9-9-9-9-9-4-4-4-4-4-4-4-4-4-8-8-8-8-8-8-8-8-||-6-6-6-6-6-6-6-6-9-9-9-9-9-9-9-9-4-4-4-4-4-4-4-4-4-8-8-8-8-8-8-8-8-||-4-4-4-4-4-4-4-4-7-7-7-7-7-7-7-7-2-2-2-2-2-2-2-2-2-6-6-6-6-6-6-6-6-||-------------------------------------------------------------------| Both guitars
|----------------------------------||----------------------------------||------------------------------4^--||---1------------------------1-----||-2--------------1---------2-------||------------2---------------------|
| Guitar 1 || ||----------------------------------||-------------------4/2------------||-----4------------------3\4-------||-------1--------------------------||----------------------------------||----------------------------------| Guitar 2
Verse|-------------------------------------------------------------||-------------------------------------------------------------||-4-4--4-4-4-6---6--6--6--4-4-4-4-11-11-11-11-9-9-9-9-9-9-9-9-||-x-x--x-x-x-x---x--x--x--x-x-x-x-x--x--x--x--x-x-x-x-x-x-x-x-||-2-2--4-4-4-4---4--4--4--2-2-2-2-9--9--9--9--7-7-7-7-7-7-7-7-||-------------------------------------------------------------|
|-----0----------------------------------------------------------||--------0--------7------------------------------11-11-11/12\11--||---4-----------4----4-4-4-4-4-4-4-4-11-11-11-11-x--x--x---------||--------------------x-x-x-x-x-x-x-x-x--x--x--x--8--8--8-/9-\8---||-4---------4/6------2-2-2-2-2-2-2-2-9--9--9--9------------------||----------------------------------------------------------------|
| Guitar 1 || ||----------------------------------------------------------------||----------------------------------------------------------------||--------------------4--------------/3----------/11--------------||----------------------------------------------------------------||----------------------------------------------------------------||----------------------------------------------------------------| Guitar 2
|---------0-------------0-----------------------------------||-------------0-----------0---------------------------------||-----4---------------4-----4-4-4-4-4-4-4-4-4-4-4-4-4-4-4-4-||---------------------------4-4-4-4-4-4-4-4-4-4-4-4-4-4-4-4-||-4---------------4/6-------2-2-2-2-2-2-2-2-2-2-2-2-2-2-2-2-||-----------------------------------------------------------|
| Guitar 1 || ||-----------------------------------------------------------||-----------------------------------------------------------||-6-6-6-6-6-6-6-6-----------4-4-4-4-4-4-4-4-4-4-4-4-4-4-4-4-||-6-6-6-6-6-6-6-6-----------4-4-4-4-4-4-4-4-4-4-4-4-4-4-4-4-||-4-4-4-4-4-4-4-4-----------2-2-2-2-2-2-2-2-2-2-2-2-2-2-2-2-||-----------------------------------------------------------| Guitar 2
|------------------------------------------------------------|-----5/9----------------------------------------------------|---4-----9/8-6/4---4-8--6--4-4--4-4-4-4-4--4-4-4-4--4-4-4-4-|-2---------------2---8--6--4-4--4-4-4-4-4--4-4-4-4--4-4-4-4-|---------------------6--4--2-2--2-2-2-2-2--2-2-2-2--2-2-2-2-|------------------------------------------------------------
|------------------------------------------------------------|-----5/9----------------------------------------------------|---4-----9/8-6/4---4-8--6--4-4--4-4-4-4-4--4-4-4-4--4-4-5-5-|-2---------------2---8--6--4-4--4-4-4-4-4--4-4-4-4--4-4-5-5-|---------------------6--4--2-2--2-2-2-2-2--2-2-2-2--2-2-3-3-|------------------------------------------------------------
|-------------------------------------------------------------------||-------------------------------------------------------------------||-6-6-6-6-6-6-6-6-9-9-9-9-9-9-9-9-4-4-4-4-4-4-4-4-4-8-8-8-8-8-8-8-8-||-6-6-6-6-6-6-6-6-9-9-9-9-9-9-9-9-4-4-4-4-4-4-4-4-4-8-8-8-8-8-8-8-8-||-4-4-4-4-4-4-4-4-7-7-7-7-7-7-7-7-2-2-2-2-2-2-2-2-2-6-6-6-6-6-6-6-6-||-------------------------------------------------------------------|
|---------------------------------------|---------------------------------------|--------------------------------4------|-----1---------------1--------1--------|-2---------------1-------2--2----------|-------------2-------------------------
|--------------------------7---9-9/11-6---7-7-7-7-7-7-7-7-6-6-6-6-6-6-6-6--|-7--9-7-----7--9-7-----------------------x-x-x-x-x-x-x-x-x-x-x-x-x-x-x-x--|-------------------8p6p4-----------------4-4-4-4-4-4-4-4-3-3-3-3-3-3-3-3--|--------------------------------------------------------------------------|--------------------------------------------------------------------------|--------------------------------------------------------------------------
|-------------------------------------------------------------------------||-------------------------------------------------------------------------||-6-6-6-6-6-4-6-8-9-9-9-9-9-8-11--4-4-4-4-4-4-4-4-11-11-11-11-3--3--3--3--||-x-x-x-x-x-x-x-x-x-x-x-x-x-x-x---x-x-x-x-x-x-x-x-x--x--x--x--x--x--x--x--||-4-4-4-4-4-2-4-6-7-7-7-7-7-6-9---2-2-2-2-2-2-2-2-9--9--9--9--1--1--1--1--||-------------------------------------------------------------------------|
| Guitar 1 || ||-------------------------------------------------------------------------||-------------------------------------------------------------------------||-6-6-6-6-6-4-6-8-9-9-9-9-9-8-11--4-4-4-4-4-4-4-4-4--4--4--4--11-11-11-11-||-x-x-x-x-x-x-x-x-x-x-x-x-x-x-x---x-x-x-x-x-x-x-x-x--x--x--x--x--x--x--x--||-4-4-4-4-4-2-4-6-7-7-7-7-7-6-9---2-2-2-2-2-2-2-2-2--2--2--2--9--9--9--9--||-------------------------------------------------------------------------| Guitar 2
|---------------------------------0---0-0-0-0-0-0-0-0-0-0-0-0---0--||---------------------------------0---0-0-0-0-0-0-0-0-0-0-0-0---0--||-6-6-6-6-6-4-6-8-9-9-9-9-9-8-11--3h4-4-4-4-4-3-3-3-3-3-3-3-3---3--||-x-x-x-x-x-x-x-x-x-x-x-x-x-x-x---4---4-4-4-4-4-4-4-4-4-4-4-4---4--||-4-4-4-4-4-2-4-6-7-7-7-7-7-6-9---4---4-4-4-4-4-4-4-4-4-4-4-4---4--||------------------------------------------------------------------|
| Guitar 1 || ||------------------------------------------------------------------||------------------------------------------------------------------||-6-6-6-6-6-4-6-8-9-9-9-9-9-8-11--3/4-4-4-4-4-3-3-3-3-3-3-3-3---3--||-x-x-x-x-x-x-x-x-x-x-x-x-x-x-x---x---x-x-x-x-x-x-x-x-x-x-x-x---x--||-4-4-4-4-4-2-4-6-7-7-7-7-7-6-9---1/2-2-2-2-2-1-1-1-1-1-1-1-1---1--||------------------------------------------------------------------| Guitar 2
|-------------------------------------------------------------------||-------------------------------------------------------------------||-6-6-6-6-6-6-6-6-9-9-9-9-9-9-9-9-4-4-4-4-4-4-4-4-4-8-8-8-8-8-8-8-8-||-6-6-6-6-6-6-6-6-9-9-9-9-9-9-9-9-4-4-4-4-4-4-4-4-4-8-8-8-8-8-8-8-8-||-4-4-4-4-4-4-4-4-7-7-7-7-7-7-7-7-2-2-2-2-2-2-2-2-2-6-6-6-6-6-6-6-6-||-------------------------------------------------------------------|
|----------------------------|----------------------------|------------------------4---|-----1------------------1---|-2--------------1-------2---|------------2---------------
Well, that's pretty much it! Hope you managed to follow it. Any questions? andrewbiles@hotmail.com
Tap to rate this tab
 
# A B C D E F G H I J K L M N O P Q R S T U V W X Y Z