King Diamond - Spiders Lullabye tab

 #----------------------------------PLEASE NOTE--------------------------------#
 #This file is the author's own work and represents their interpretation of the#
 #song. You may only use this file for private study, scholarship, or research.#
 #-----------------------------------------------------------------------------#
 Author/Artist:King Diamond
 Title:The Spiderīs lullabye
 Album: The Spiderīs lullabye
 Transcribed by: ANDRES GUZMAN
 Email: P1MAN30@HOTMAIL.COM
 please do not copy this tab to another site!!!
 
 RhyFig1 ( With Guitar1 ) :
 
 --------------------------
 
 
 
|---7---6---7---6---7---6---7---6-| |-5---4---5---4---5---4---5---4---| |---------------------------------| |---------------------------------| |---------------------------------| |---------------------------------|
End RhyFig1. Lyrics ( With RhyFig1 ) : ------------------------- "In a little cottage, in the countryside; lives a man called Henry, and he's losing his mind." RhyFig2 ( With Guitar1 ) : -------------------------- ( With Guitar2 ): Listen!!
|---7---6---5---6---7---6---5---6-|---------| |-5---4---5---4---5---4---5---4---|---------| |---------------------------------|--6--6vv-| |---------------------------------|--6--6vv-| |---------------------------------|--4--4vv-| |---------------------------------|---------|
End RhyFig2. RhyFig3 : --------- ( With Guitar2 ) |------------------|------------------|------------------|------------------| |------------------|------------------|------------------|------------------| |------------------|------------------|------------------|------------------| |------------------|------------------|------------------|------------------| |-4vv--7v--6v--5vv-|-4vv--7v--6v--5vv-|-4vv--7v--6v--5vv-|-4vv--7v--6v--5vv-| |------------------|------------------|------------------|------------------|
( With Guitar3 ) | | | | |------------------|------------------|------------------|------------------| |------------------|------------------|------------------|------------------| |------------------|------------------|------------------|------------------| |------------------|------------------|------------------|------------------| |------------------|------------------|------------------|------------------| |-0vv--3v--2v--1vv-|-0vv--3v--2v--1vv-|-0vv--3v--2v--1vv-|-0vv--3v--2v--1vv-|
End RhyFig3. Hear the Spider's Lullabye. |----------------------------| |----------------------------| |----------------------------| |----------------------------| |-4---7---6---5---4--7--6--5-| |----------------------------|
It's really sad for Harry, He finds a spider scary
|--------------------------|---------------------------| |--------------------------|---------------------------| |--------------------------|---------------------------| |-6--6----------2-----2----|--8--8----------4-----4----| |-4--4---4---4-----4-----4-|--6--6---6---6-----6-----6-| |--------------------------|---------------------------|
|-------pm-------| |-------pm-------| Even the smallest species will make him feel uneasy
|--------------------------|---------------------------| |--------------------------|---------------------------| |--------------------------|---------------------------| |-6--6----------2-----2----|--8--8----------4-----4----| |-4--4---4---4-----4-----4-|--6--6---6---6-----6-----6-| |--------------------------|---------------------------|
|-------pm-------| |-------pm-------| Oooooooooohhhhhhhhhhhhh they live in every corner
|--------------------------|---------------------------| |--------------------------|---------------------------| |--------------------------|---------------------------| |-9--9----------5-----5----|--8--8----------4-----4----| |-7--7---7---7-----7-----7-|--6--6---6---6-----6-----6-| |--------------------------|---------------------------|
|-------pm-------| |-------pm-------| Oooooooooohhhhhhhhhhhhh and here comes the summer
|--------------------------|---------------------------| |--------------------------|---------------------------| |--------------------------|---------------------------| |-9--9----------5-----5----|--8--8----------4-----4----| |-7--7---7---7-----7-----7-|--6--6---6---6-----6-----6-| |--------------------------|---------------------------|
|-------pm-------| |-------pm-------| There's another spider on his wall. Gotta kill it!
|----------------------------|-----|--------|--------------|---------| |----------------------------|-----|--------|--------------|-another-| |----------------------------|-6-6-|-spooky-|------6-6v----|-spooky--| |----------------------------|-6-6-|-chord!-|------6-6v----|-chord!--| |-4---7---6---5---4--7--6--5-|-4-4-|--------|------4-4v----|---------| |----------------------------|-----|--------|--------------|---------|
Soon to be another creamy spot. Ooohhhh!!
|----------------------------|-----|--------|--------------|---------| |----------------------------|-----|--------|--------------|-another-| |----------------------------|-6-6-|-spooky-|------6-6v----|-spooky--| |----------------------------|-6-6-|-chord!-|------6-6v----|-chord!--| |-4---7---6---5---4--7--6--5-|-4-4-|--------|------4-4v----|---------| |----------------------------|-----|--------|--------------|---------|
As he wokeup this morning,there was a spider crawling
|--------------------------|---------------------------| |--------------------------|---------------------------| |--------------------------|---------------------------| |-8--8----------4-----4----|--6--6----------2-----2----| |-6--6---6---6-----6-----6-|--4--4---4---4-----2-----2-| |--------------------------|---------------------------|
|-------pm-------| |-------pm-------| He felt a big suprise before it caught his eyes
|--------------------------|---------------------------| |--------------------------|---------------------------| |--------------------------|---------------------------| |-8--8----------4-----4----|--6--6----------2-----2----| |-6--6---6---6-----6-----6-|--4--4---4---4-----2-----2-| |--------------------------|---------------------------|
|-------pm-------| |-------pm-------| Oooooooooohhhhhhhhhhhhh it was between his face
|--------------------------|---------------------------| |--------------------------|---------------------------| |--------------------------|---------------------------| |-9--9----------5-----5----| -8--8----------4-----4----| |-7--7---7---7-----7-----7-|--6--6---6---6-----6-----6-| |--------------------------|---------------------------|
|-------pm-------| |-------pm-------| Oooooooooohhhhhhhhhhhhh and his pillow case
|--------------------------|---------------------------| |--------------------------|---------------------------| |--------------------------|---------------------------| |-9--9----------5-----5----|--8--8----------4-----4----| |-7--7---7---7-----7-----7-|--6--6---6---6-----6-----6-| |--------------------------|---------------------------|
|-------pm-------| |-------pm-------| There's another spider on his wall. Gotta kill it!
|----------------------------|-----|--------|--------------|---------| |----------------------------|-----|--------|--------------|-another-| |----------------------------|-6-6-|-spooky-|------6-6v----|-spooky--| |----------------------------|-6-6-|-chord!-|------6-6v----|-chord!--| |-4---7---6---5---4--7--6--5-|-4-4-|--------|------4-4v----|---------| |----------------------------|-----|--------|--------------|---------|
Soon to be another creamy spot. Ooohhhh!!
|----------------------------|-----|--------|--------------|---------| |----------------------------|-----|--------|--------------|-another-| |----------------------------|-6-6-|-spooky-|------6-6v----|-spooky--| |----------------------------|-6-6-|-chord!-|------6-6v----|-chord!--| |-4---7---6---5---4--7--6--5-|-4-4-|--------|------4-4v----|---------| |----------------------------|-----|--------|--------------|---------|
Lyrics ( With RhyFig1 ) : ------------------------- "Here comes another one... Hahahahahahaha He's got to find a doctor, a very special doctor Someone who can cure his mind Someone who knows Harry's kind" Then do RhyFig2 once, and after that RhyFig3 once. Then, Hear the Spider's Lullabye.
|----------------------------| |----------------------------| |----------------------------| |----------------------------| |-4---7---6---5---4--7--6--5-| |----------------------------|
Those creepy crawly creatures With all thier hairy features
|-----------------------------|----------------------------| |-----------------------------|----------------------------| |-----------------------------|----------------------------| |-6--6----------2-----2-------|--9--9----------5-----5-----| |-4--4---4---4-----4-----4----|--7--7---7---7-----5-----5--| |-----------------------------|----------------------------|
|-------pm-------| |-------pm-------| Hoping to catch a fly Singing it's deadly lullaby
|--------------------------|--------------------------------------| |--------------------------|--------------------------------------| |--------------------------|--------------------------------------| |-6--6----------2-----2----|-8-8-------4---4----7-7-------4---4---| |-4--4---4---4-----4-----4-|-6-6--6--6---6---6--5-5--5--5---5---5-| |--------------------------|--------------------------------------|
|-------pm-------| |-----pm-----| |----pm----| Solo : ------ ( With Guitar4 ) Oooohhhhh!
|-19-21-18-20-17-19-.....9vv-|----------------------------| |----------------------------|----------------------------| |----------------------------|----------------------------| |----------------------------|----------------------------| |----------------------------|----------------------------| |----------------------------|----------------------------|
| ( With Guitar2 ) | |
|----------------------------|----------------------------| |----------------------------|----------------------------| |----------------------------|----------------------------| |-6--6----------2-----2------|--9--9----------5-----5-----| |-4--4---4---4-----4-----4---|--7--7---7---7-----5-----5--| |----------------------------|----------------------------|
( With Guitar4 ) Oooooohhhhhhh Nnnnooooooooooo!!
|-17-19-16-18-15-17-.....7vv-|--------------------------------------| |----------------------------|--------------------------------------| |----------------------------|--------------------------------------| |----------------------------|--------------------------------------| |----------------------------|--------------------------------------| |----------------------------|--------------------------------------|
| ( With Guitar2 ) | |
|----------------------------|--------------------------------------| |----------------------------|--------------------------------------| |----------------------------|--------------------------------------| |-6--6----------2-----2------|-8-8-------4---4----7-7-------4---4---| |-4--4---4---4-----4-----4---|-6-6--6--6---6---6--5-5--5--5---5---5-| |----------------------------|--------------------------------------|
|-------pm-------| |-----pm-----| |----pm----| There's another spider on his wall. Gotta kill it!
|----------------------------|-----|--------|--------------|---------| |----------------------------|-----|--------|--------------|-another-| |----------------------------|-6-6-|-spooky-|------6-6v----|-spooky--| |----------------------------|-6-6-|-chord!-|------6-6v----|-chord!--| |-4---7---6---5---4--7--6--5-|-4-4-|--------|------4-4v----|---------| |----------------------------|-----|--------|--------------|---------|
This tab help you to play "The Spiderīs Lullabye", is not yet correct because im only 16 years old so I am pround if i have tabbed it. Every comments, complaints, suggestions and all that shit are welcome and send me e-mails please.
Tap to rate this tab
 
# A B C D E F G H I J K L M N O P Q R S T U V W X Y Z