King Kobra – Piece Of Rock tab

(guitarra ritmica)

1.-------------------------------------------------|2.---0-1-----0-1-----------0-1-----0-1-------------|3.-------2-------2-------------0-------0-----------|4.---------2-------2-------------2-------2-----2-0-|5.-0-----------------0-2-3-------------------3-----|6.-------------------------------------------------|
1.-----------------------------------3-|2.-0-1---------1-3---------0-1-------3-|3.-----2---0-2-----------------2-----0-|4.-------0-----------------------0---0-|5.------------------3-2-0------------2-|6.-----------------------------------3-|
(Tocamos dos veces y sobre la segunda este riff) (solista)
1.-------------------------------------------|2.-------------------------------------------|3.-16-17-16----16-17-16----16-17-16-(Vib)----|4.----------19----------19----------19----17-|5.-------------------------------------------|6.-------------------------------------------|
Just give me a piece of the rock All I need is the key to the lock Just give me a piece, a piece of the rock (guitarra rítmica)
1.------------------------------------------------------------|2.-------------------------------H----------------------------|3.------------------------------(5)---------------------------|4.------------------------------------------------------------|5.-7---9-10---7-/5---2-5-7-5-7-5--------------3-------------3-|6.-5---7-8-----------0-3-5-3-5-3----3-5-5-3-5---0-3-5-3-0-3---|
1.---------------------------------------------------|2.---------------------------------------------------|3.---------------------------------------------------|4.-5-5-5-5-5-----------------------------------------|5.-3-3-3-3-3---5-5-5-5-5---7-7-7-7-7-7---5-7-7-7-7-5-|6.-------------3-3-3-3-3---5-5-5-5-5-5---3-5-5-5-5-3-|
(guitarra solista)
1.------------------------------------| 2.------------------------------------| 3.---7(9)(7)5---7-5-7-5---7(9)(7)-5---| 4.-7----------7---------7-----------7-| 5.------------------------------------| 6.------------------------------------|
Cast out, lost and all alone Exiled, my existence unknown My belief in myself I can make it on my own All I want is a piece, a piece of that rock (guitarra rítmica)
1.----------------------------|2.----------------------------|3.----------------------------|4.----------------------------|5.-----------3-------------3--|6.-3-5-5-3-5---0-3-5-3-0-3----|...
1.---------------------------------------------------|2.---------------------------------------------------|3.---------------------------------------------------|4.-5-5-5-5-5-----------------------------------------|5.-3-3-3-3-3---5-5-5-5-5---7-7-7-7-7-7---5-7-7-7-7-5-|6.-------------3-3-3-3-3---5-5-5-5-5-5---3-5-5-5-5-3-|
All the paths that I've walked on All the doors that I've knocked on
1.------------------------------------|2.------------------------------------|3.------------------------------------|4.---------------------------7--------|5.---3------2/--------3------5--------|6.---1------0/--------1---------------|
I promise I'll never stop Just take me right to the top Just give me a piece, a piece of the rock
1.--------------------------------------------------------|2.--------------------------------------------------------|3.--------------------------------------------------------|4.--------------------------------------------------------|5.-7--9-10--7-/5--2-5-7-5-7-5--7--9-10--7-/5--2-5-7-5-7-5-|6.-5--7-8---------0-3-5-3-5-3--5--7-8---------0-3-5-3-5-3-|
(guitarra solista)
1.-----------------------------| 2.-------13--------------------| 3.---/16-----14(16)(14)--------| 4.----------------------14-----| 5.-----------------------------| 6.-----------------------------|
(solo)
1.---------------------------------------------------------|2.---------------------------------------------------------|3.-(¿?)-19(21)(19)-19(21)----------------------------------|4.------------------------------17-19-17----19-17----21-17-|5.------------------------17-19----------19-------19-------|6.---------------------------------------------------------|
1.---------------------|2.---------------------|3.---------------------|4.----21-21-19-17------|5.-19-------------21---|6.---------------------|. . .
1.-----------------------------------------------------------|2.-----------------------------------------------------------|3.--------------------------------------16-17-19-17-16-17-19-|4.----------17-19-21-19-17-16-16-17-19-----------------------|5.-19-21-22--------------------------------------------------|6.-----------------------------------------------------------|
1.----------------------------|2.-20-19-17-------------------|3.----------19-17-16----------|4.-------------------19-17-16-|5.----------------------------|6.----------------------------|
1.-------------------------------------------------------|2.-------------------------------------------------------|3.-14-16-14----14-----2-4-2----2---2-0-2-4-2-0---0-2-0---|4.----------17----16---------5---4-------------4-------4-|5.-------------------------------------------------------|6.-------------------------------------------------------|
1.-15---19-17-------19-17-------19-17-------19-17-------|2.------------20-19-------20-19-------20-19-------20-19-|3.------------------------------------------------------|4.------------------------------------------------------|5.------------------------------------------------------|6.------------------------------------------------------|
1.--------14-15-17-15-14----19-17-15-----------|2.-22(24)----------------17----------19-22(24)-|3.---------------------------------------------|4.---------------------------------------------|5.---------------------------------------------|6.---------------------------------------------|
1.---------------------------------------------------------|2.---------------------------------------------------------|3.-14(16)---7-8--------------------------------------------|4.--------------11-11-12----11----9-11-9-12-9-12-12-9-12-9-|5.-----------------------14----12--------------------------|6.---------------------------------------------------------|
1.---------------------------------------------------------|2.---------------------------------------------------------|3.-14(16)-12-14-11-12-11----11-----------------------------|4.-----------------------14----14-12-14-12-10-12-10-----10-|5.---------------------------------------------------14----|6.---------------------------------------------------------|
1.--------------------------------------------------------|2.--------------------------------------------------------|3.-------------------------------------------/5---5-5-4---|4.------------------------------------------------------7-|5.-14-12-14-12-10-12-10-9-10-9-7-9-7-5-7-5-3--------------|6.--------------------------------------------------------|
1.-------------------------------------------------|2.---0-1-----0-1-----------0-1-----0-1-------------|3.-------2-------2-------------0-------0-----------|4.---------2-------2-------------2-------2-----2-0-|5.-------------------0-2-3-------------------3-----|6.-------------------------------------------------|
1.-----------------------------------|2.-0-1---------1-3---------0-1-------|3.-----2---0-2-----------------2-----|4.-------0-----------------------0---|5.------------------3-2-0------------|6.-----------------------------------|
Am I foolin' myself, or am I foolin' you? Do I need to fool anyone at all? I think I'll follow, no, maybe I'll lead On my piece of the rock, I'm gonna stand tall (guitarra rítmica)
1.----------------------------|2.----------------------------|3.----------------------------|4.----------------------------|5.-----------3-------------3--|6.-3-5-5-3-5---0-3-5-3-0-3----|...
1.---------------------------------------------------|2.---------------------------------------------------|3.---------------------------------------------------|4.-5-5-5-5-5-----------------------------------------|5.-3-3-3-3-3---5-5-5-5-5---7-7-7-7-7-7---5-7-7-7-7-5-|6.-------------3-3-3-3-3---5-5-5-5-5-5---3-5-5-5-5-3-|
(Solista)
1.--------------------| 2.------H--H----------| 3.-7(9)(9)(7)-5-7-5-5-| 4.--------------------| 5.--------------------| 6.--------------------|
(guitarra rítmica)
1.----------------------------|2.----------------------------|3.----------------------------|4.----------------------------|5.-----------3-------------3--|6.-3-5-5-3-5---0-3-5-3-0-3----|...
( solista)
1.-----------| 2.-22--------| 3.-----------| 4.-----------| 5.-----------| 6.-----------|
(guitarra rítmica)
1.---------------------------------------------------|2.---------------------------------------------------|3.---------------------------------------------------|4.-5-5-5-5-5-----------------------------------------|5.-3-3-3-3-3---5-5-5-5-5---7-7-7-7-7-7---5-7-7-7-7-5-|6.-------------3-3-3-3-3---5-5-5-5-5-5---3-5-5-5-5-3-|
All the paths that I've walked on All the doors that I've knocked on
1.------------------------------------|2.------------------------------------|3.------------------------------------|4.---------------------------7--------|5.---3------2/--------3------5--------|6.---1------0/--------1---------------|
I promise I'll never stop Just take me right to the top Just give me a piece, a piece of the rock
1.--------------------------------------------------------|2.--------------------------------------------------------|3.--------------------------------------------------------|4.--------------------------------------------------------|5.-7--9-10--7-/5--2-5-7-5-7-5--7--9-10--7-/5--2-5-7-5-7-5-|6.-5--7-8---------0-3-5-3-5-3--5--7-8---------0-3-5-3-5-3-|
(solista)
1.---------------/10-10---|2.-/10---10-/12-----------|3.------------------------|4.------------------------|5.------------------------|6.------------------------|
1.------------------------------------------------------|2.------------------------------------------------------|3.-19(21)(21)19----17-------19-21-19----19----19-17-----|4.--------------19----19-22----------22----22--------17-|5.------------------------------------------------------|6.------------------------------------------------------|
1.----------------------------------|2.------------------------20(22)----|3.-19(21)-19-17-19-19(21)-----------|4.----------------------------------|5.----------------------------------|6.----------------------------------|
perchintabs.blogspot.com
Please rate this tab:
x1.0