Kiss - Kissin Time tab

#----------------------------------PLEASE NOTE---------------------------------#
#This file is the author's own work and represents their interpretation of the #
#song. You may only use this file for private study, scholarship, or research. #
#------------------------------------------------------------------------------##
Received: from violet.berkeley.edu (violet.Berkeley.EDU [128.32.155.22]) by post-office.nevada.edu (8.6.4/8.6.4) with ESMTP id WAA10976 for ; Mon, 14 Mar 1994 22:31:52 -0800
Received: from DialupEudora by violet.berkeley.edu (8.6.4/1.33r)
	id WAA06386; Mon, 14 Mar 1994 22:31:48 -0800
Date: Mon, 14 Mar 1994 22:31:48 -0800
Message-Id: <199403150631.WAA06386@violet.berkeley.edu>
Mime-Version: 1.0
Content-Type: text/plain; charset="us-ascii"
To: jamesb@nevada.edu
From: robs@violet.berkeley.edu (Rob Schenk)
Subject: Tab: Kiss "Kissin' Time"

PLease  add to the archives.

Thanks

Kissin Time

by Kiss

off the album, Kiss

tune down 1/2 step

transcribed by Rob Schenk

intro

--------------------------------------3---------------12---5-2--2-----5---------12---5-2--0-3---5-5-------10---3-0----3---3-5-------------------1------3-------
--------------------------------------3---------------12---5-2--2-----5-------12--12---5-2--0-3---5-5-----12--10---3-0----3---3-5-----10--------------1------3-------
verse 1
-----------------------------------------------------7-7--7-7--7-7--7-7----5----7-7--7-7--7-7--7-7--5-5-5----5-5--5-5--5-5--5-5--5-3-5-------------------------3---3
-----------------------------------------------------5---5---5--------------------5-5-5-5-5----------------------3-5-3-5-3------------------------3---3--------------------
-----------------------------------------------------7-7--7-7--7-7--7-7----5----7-7--7-7--7-7--7-7--5-5-5----5-5--5-5--5-5--5-5--5-3-5-------------------------3---3
-----------------------------------------------------5---5---5---5-5--5-5--5-5--5-5--5-5-5-5-5---5-5--5-5--5-5--5-5--3-5-3-5-3---3-3--3-3--3-3--3-3----3---3--------------------
-------------------------------------------------------5---5---5---5---------5-5-5-5-5-5-5-5----------5-3-5-3-5-3-5-3----------3---3---3---3-----------
-----------------------------------------------------7-7--7-7--7-7--7-7---------7-7--7-7--7-7--7-7--5-5-5-5---5-5--5-5--5-5--5-5--5-5-5-5------------------------3-3-3-3
chorus
----------------------------------------------------------5-5--5--5-5--5---------------5-5--5--5-5--5--5-5-5-5-----3-3--3--3-3--3--5-5-5-5-----------------------3-3-3-3-----
-----------------------------------------------------5-5--5--5-5--5-----------------5-5--5--5-5--5---7-7-7-7-7-7---3-3--3--3-3--3---7-7-7-7-7-7---------------------5-5-5-5-5-5-
-----------------------------------------------------7-7-7-7-7-7--------------7-7-7-7-7-7--------------5-5-5-5-5-5---------------------------------------
verse 2 follow same pattern as verse 1 except add a slide like the following.
-----------------------------------------------------7-7/10--7-7/10-----------7-7/10--7-7/10-----------etc..-5-5/-8--5-5/-8-------------------------------------
Tap to rate this tab
 
# A B C D E F G H I J K L M N O P Q R S T U V W X Y Z