Knights Of The Abyss - Hadlock tab

Well
I'm Not Ver Shure On This Tab But I think That Is Close.
So This Part It's The Breakdown So mmmm
Tunning Drop B
i tabbed the right guitar

                             I am your

-------------------------------------------|-------------------------------------------|-------------------------------------------|00-1///////////////////////----------------|00-1///////////////////////----------------|00-1///////////////////////----------------|..
executioner------------------------------------------|------------------------------------------|------------------------------------------|-0----------------------------------------|-0----------------------------------------|-0----------------------------------------| .
------------------------------------------|------------------------------------------|------------------------------------------|1-0000-1-0000-0-3-2-3-5-4-3---------------|1-0000-1-0000-0-3-2-3-5-4-3--5*-----------|1-0000-1-0000-0-3-2-3-5-4-3---------------|. .... . .... . . . . . . .
-------------------------------------------------------------------|-------------------------------------------------------------------|-------------------------------------------------------------------|1-0000-1-0000------------------------------------------------------|1-0000-1-0000--66664433446644--------------------------------------|1-0000-1-0000------------------------------------------------------|. .... . ....
------------------------------------------|------------------------------------------|------------------------------------------|1-0000-1-0000-0-3-2-3-5-4-3---------------|1-0000-1-0000-0-3-2-3-5-4-3--5*-----------|1-0000-1-0000-0-3-2-3-5-4-3---------------|. .... . .... . . . . . . .
-------------------------------------------------------------------|-------------------------------------------------------------------|-------------------------------------------------------------------|1-0000-1-0000------------------------------------------------------|1-0000-1-0000--66664433446644--------------------------------------|1-0000-1-0000------------------------------------------------------|. .... . ....
--------------------------------------------------------------|--------------------------------------------------------------|--------------------------------------------------------------|1-0000-1-0000-1-0---------------------------------------------|1-0000-1-0000-1-0---------------------------------------------|1-0000-1-0000-1-0---------------------------------------------|. .... . .... . .
--------------------------------------------------------------|--------------------------------------------------------------|--------------------12*b--------------------------------------|1-0000-1-0000-1-0---------------------------------------------|1-0000-1-0000-1-0---------------------------------------------|1-0000-1-0000-1-0---------------------------------------------|. .... . .... . .
--------------------------------------------------------------|--------------------------------------------------------------|--------------------------------------------------------------|1-0000-1-0000-1-0---------------------------------------------|1-0000-1-0000-1-0---------------------------------------------|1-0000-1-0000-1-0---------------------------------------------|. .... . .... . .
--------------------------------------------------------------|--------------------------------------------------------------|--------------------------------------------------------------|1-0000-1-0000-1-0---------------------------------------------|1-0000-1-0000-1-0---------------------------------------------|1-0000-1-0000-1-0---------------------------------------------|. .... . .... . .
--------------------------------------------------------------|--------------------------------------------------------------|--------------------------------------------------------------|1-0000-1-0000-1-0---------------------------------------------|1-0000-1-0000-1-0---------------------------------------------|1-0000-1-0000-1-0---------------------------------------------|. .... . .... . .
--------------------------------------------------------------|--------------------------------------------------------------|--------------------------------------------------------------|1-0000-1-0000-1-0---------------------------------------------|1-0000-1-0000-1-0---------------------------------------------|1-0000-1-0000-1-0---------------------------------------------|. .... . .... . .
--------------------------------------------------------------|--------------------------------------------------------------|--------------------------------------------------------------|1-0000-1-0000-1-0---------------------------------------------|1-0000-1-0000-1-0---------------------------------------------|1-0000-1-0000-1-0---------------------------------------------|. .... . .... . .
--------------------------------------------------------------|--------------------------------------------------------------|--------------------------------------------------------------|1-0000-1-0000-1-0---------------------------------------------|1-0000-1-0000-1-0---------------------------------------------|1-0000-1-0000-1-0---------------------------------------------|. .... . .... . .
The End Hope you like it
Tap to rate this tab
 
# A B C D E F G H I J K L M N O P Q R S T U V W X Y Z