Knorkator - Besondrer Mann tab

E tuning

Artist:Knorkator
Song:Ein ganz besondrer Mann
Album:Hasenchartbreaker

Intro

------------------------------------------------------------|------------------------------------------------------------|-7-----7----7----7------------------------------------------|-7-----7----7----7------------------------------------------|-5-----5----5----5------------------------------------------|------------------------------------------------------------|
Strophe 1
------------------------------------------------------------|------------------------------------------------------------|-7----7----7---7---7---7---3--------------------------------|-7----7----7---7---7---7---3---5---7------------------------| X2-5----5----5---5---5---5---1---5---7------------------------|-------------------------------3---5------------------------|
Bridge
------------------------------------------------------------|------------------------------------------------------------|-5---5---5---5---5---5---5----------------------------------|-5---5---5---5---5---5---5---5---7--------------------------|-3---3---3---3---3---3---3---5---7--------------------------|-----------------------------3---5--------------------------|
Refrain
------------------------------------------------------------|------------------------------------------------------------|7-7-7-7-7-7---5-5-5--7--3-3---------------------------------|7-7-7-7-7-7---5-5-5--7--3-3--5-5--7-7-----------------------|5-5-5-5-5-5---3-3-3--5--1-1--5-5--7-7-----------------------|-----------------------------3-3--5-5-----------------------|
(hier muss man so halbwegs einfach den gesang nachspieln das hört sich am besten an im Refrain Keyboard Solo
------------------------------------------------------------|------------------------------------------------------------|7-7-7-7-8-7-5-----------------------------------------------|-----------------7-7-7-7-8-7-5------------------------------|------------------------------------------------------------|------------------------------------------------------------|
------------------------------------------------------------|------------------------------------------------------------|7-7-7-7-8-7-5-----------------------------------------------|-----------------7-7-7-7-8-7-5------------------------------|------------------------------------------------------------|------------------------------------------------------------|
------------------------------------------------------------|------------------------------------------------------------|7-7-7-7-8-7-5-----------------------------------------------|-----------------7-7-7-7-8-7-5------------------------------|------------------------------------------------------------|------------------------------------------------------------|
------------------------------------------------------------|------------------------------------------------------------|7-7-7-7-8-7-5-----------------------------------------------|-----------------7-7-7-7-8-7-5------------------------------|------------------------------------------------------------|------------------------------------------------------------|
Gitarre kommt dazu
------------------------------------------------------------|--------------8-10------------------------------------------|7-7-7-7-8-7-5-----------------------------------------------|---------------------7-7-7-7-8-7-5-3------------------------|------------------------------------------------------------|------------------------------------------------------------|
------------------------------------------------------------|--------------8-10------------------------------------------|7-7-7-7-8-7-5-----------------------------------------------|---------------------7-7-7-7-8-7-5-3------------------------|------------------------------------------------------------|------------------------------------------------------------|
Passagen Intro x1 Verse Bridge x1 Refrain x2 Intro x1 Verse Bridge x1 Refrain x2 Solo Intro x1 Strophe 3 keine Gitarre Bridge x1 Refrain x4 Intro x1 Sehr einfacher aba lustiger song
Tap to rate this tab
 
# A B C D E F G H I J K L M N O P Q R S T U V W X Y Z