Koji Kondo - Bob-omb Battlefield tab

-------------------------------------------------------------------------------
			     SONG NAME - Band Name
-------------------------------------------------------------------------------
Tabbed by: Axlanian
Email: axlanian@yahoo.com

Tuning: Standard
 
E||--------------10-----------------|---------------------------|B||--13--10--13-----13--------------|-----------------------3-4-|G||---------------------9---10--11--|--12----12---12------------|D||---------------------------------|---------------------------|A||---------------------------------|---------------------------|E||---------------------------------|---------------------------|
--------3--5-3--------------|---------------------------|--5-4-5---------------------|--------1--3-1-------------|----------------5-------0-1-|--2-1-2---------2-------2--|----------------------------|---------------------------|----------------------------|---------------------------|----------------------------|---------------------------|
--------3---------3---------3-|-----3--5-3---------------|------------------------------|-------------4--------3-4-|------------------------------|--------------------------|--5-4-5-----5-4-5-----5-4-5---|--------------------------|------------------------------|--------------------------|------------------------------|--------------------------|
--------3--5-3--/8-----------|----------8--10-8---------------|--5-4-5------------------8-9-|--10-9-10----------10-------10--|-----------------------------|--------------------------------|-----------------------------|--------------------------------|-----------------------------|--------------------------------|-----------------------------|--------------------------------|
----------------------------|-----8--6-7--8-----------------|--8-7-8-----8-7-8-----5--5--|-------------------------------|----------------------------|--5-----------------9-10-11-12-|----------------------------|-------------------------------|----------------------------|-------------------------------|----------------------------|-------------------------------|
-----------------------|------------------------------|--10------9------------|------------------------------|-------------12--------|--10---12---9------9-10-11-12-|-----------------------|------------------------------|-----------------------|------------------------------|-----------------------|------------------------------|
-----------------------|------------------------|--10------9------------|------------------------|-------------12--------|--10---9----------------|-----------------------|-----------10-----------|-----------------------|------------------------|-----------------------|------------------------|
--------------------------------|------------------------------|--10--10--9--9------------------|------------------------------|----------------12--12--11--11--|--10---12---9------9-10-11-12-|--------------------------------|------------------------------|--------------------------------|------------------------------|--------------------------------|------------------------------|
--------------------------------|------------------------|--10--10--9--9------------------|------------------------|----------------12--12--11--11--|--10---9----------------|--------------------------------|-----------10-----------|--------------------------------|------------------------|--------------------------------|------------------------|
--------------------------|--------------------------|--1-----------1-----------|--------------------------|-------3-----------3------|--2-----------2-----------|----2-----------2---------|-------1-----------1------|--------------------------|----3-----------3---------|--------------------------|--------------------------|
--------------------------|------------------------|--1-----------1-----------|------------------------|-------3-----------3------|--2--2--2--2--1---------|----2-----------2---------|------------------------|--------------------------|------------------------|--------------------------|------------------------|
--------------------------|--------------------------|--1-----------1-----------|--------------------------|-------3-----------3------|--2-----------2-----------|----2-----------2---------|-------1-----------1------|--------------------------|----3-----------3---------|--------------------------|--------------------------|
--------------------------|------------------------||--1-----------1-----------|--1--1--1--1--0---------||-------3-----------3------|------------------------||----2-----------2---------|------------------------||--------------------------|------------------------||--------------------------|------------------------||
Tap to rate this tab
 
# A B C D E F G H I J K L M N O P Q R S T U V W X Y Z