Konkhra - Sexual Affective Disorder tab

                  Konkhra-Sexual Affective Disorder
                  The Dying Are-Nuclear Blast,1994
                                                                   
(member of 's Elite Team)
Tabbed-sieberte@iaw.com                        Tuning-C#

Open chord run over from tune before. ---------------------------------/ ---------------------------------/ ---------------------------------/ ---------------------------------/ (2)(2)-----5-----4-2--2-2-5-2-2-4/ (0)(0)-0-0-3-0-0-2-0--0-0-3-0-0-2/ * * * * * * * * Repeat 4 times! Riff A
--------------------------------------------- --------------------------------------------- --------------------------------------------- --------------------------------------------- ---------3-----------4-----5---------5-----4- -0-0-0-0-1-0-0-0-0-0-2-0-0-3-0-0-0-0-3-0-0-2-
* * * * * * * * * * * * * * * * * * * * repeat twice with 1 and then 2 1 2 RiffB ------------------------------------------/------/------------ ------------------------------------------/------/------------ ------------------------------------------/------/------------ ------------------------------------------/------/------------ -4---------5-4---------------4---------5-4/3-4-5-/2-3-4-3-4-5- -2-2-2-2-2-3-2-2-2-2-2-2-2-2-2-2-2-2-2-3-2/1-2-3-/0-1-2-1-2-3-
* * * * * * * * * * * * * * * * * * * * * * * * Repeat 4 times 1,3 2,4 RiffC -P-------------------------------/-------/--------------------(The three's -~-------------------------------/-------/-------------------- in brackets -7-------------------------------/-------/-------------------- are optio- ---------------------------------/-------/-------------------- nal) ----2-------5-2-------5-2-------5/3-3-3-3/(333333333)--------- ----0-33-22-3-0-33-22-3-0-33-22-3/1-1-1-1/-111111111----------
** ** ( ** ** ( ** ** ( * * * * I can't decide if the notes with ( are palm muted or open. Repeat twice Riff D --------------------------------------------------------- --------------------------------------------------------- --------------------------------------------------------- --------------------------------------------------------- -9-----9-----9-----9/10-9-----9-------------------------- -7-7-7-7-7-7-7-7-7-7/8--7-7-7-7-101010999888999888777---- * * * * * * * * *********************
Repeat C Four times Repeat D Twice Guitar 1 riff E
---------------------------------------------------------------- ---------------------------------------------------------------- ---------------------------------------------------------------- ---------------------------------------------------------------- -2-------------4---------5-4-3-2-------------4-------------~---- -0-000-000-000-2-000-000-3-2-1-0-000-000-000-2-000-000-3-2-5----
* *** *** *** * *** *** * * * * *** *** *** * *** *** Guitar 2 ---------------------------------------------------------------- ---------------------------------------------------------------- ---------------------------------------------------------------- ---------------------------------------------------------------- -2-------------4---------5-4-3-2--------------4------------~---- -0-------------2---------3-2-1-0--------------2--------3-2-5----
* * * * * * * Both guitars!! ---------------------------------------------------------------- ---------------------------------------------------------------- ---------------------------------------------------------------- ---------------------------------------------------------------- -2-------------4---------5-4-3-2--------------4-------------~--- -0-00000000000-2-0000000-3-2-1-0-000000000000-2-0000000-3-2-5--- * *********** * ******* * * * * ************ * *******
The growl and the whole band starts repeat the above rif two more times.
---------------------------------------------------------------- ---------------------------------------------------------------- ---------------------------------------------------------------- ---------------------------------------------------------------- -2----3-2-0-5-3-2-3-2------3-2-0-5-3-2---2----3-2-0-5-3-2-3-2--4 -0--1-----------------0--1-------------3-0--1---------------0--2
---------------------------------------------------------------- ---------------------------------------------------------------- ---------------------------------------------------------------- ---------------------------------------------------------------- -2--3-----------------2--3----------------2--3--------------2--4 -0--1-----------------0--1----------------0--1--------------0--2
Both guitars repeat riff E twice Repeat 4 times Riff F -------------------------------------------------- -------------------------------------------------- -------------------------------------------------- --------------------------------------------------
-2-2---------2-2--2-2---------3-3-3-3------------- -0-0-33-22-3-0-0--0-0-33-22-3-1-1-1-1------------- * ** ** * * * ** ** * * * *
Repeat riffC twice Guitar 1 ------------------------------------------------ ------------------------------------------------ ------------------------------------------------ ------------------------------------------------
-2-2---------2-2-------------------------------- -0-0-33-22-3-0-0-----0-33-22-3-1-1-1-1---------- * ** ** * * ** ** * * * * * Both guitars repeat this
Guitar 2 RiffG together 4 times ---------------------------------------P-------- ---------------------------------------~-------- ---------------------------------------7-------- ------------------------------------------------ -2-2---------2-2-----2---------3-3-3-3---------- -0-0-33-22-3-0-0-000-0-33-22-3-1-1-1-1---------- * ** ** * * *** ** ** * * * *
Fragments of the Dying Art!!!! Aggresion released!!!! -------------------------------------------------- -------------------------------------------------- -------------------------------------------------- --------------------------------------------------
-4---5-5-5-2-2-2-2-2-2-2-4---5-5-5---------------- -2-0-3-3-3-0-0-0-0-0-0-0-2-0-3-3-3---------------- * * * * * * * * * * *
Fragments of the Art!!!! Patience Deceased!!!
------------------------------------------ ------------------------------------------ ------------------------------------------ ------------------------------------------ -4---5-5-5-2-2-2-2-2-2-2-4---5-5-5-------- -2-0-3-3-3-0-0-0-0-0-0-0-2-0-3-3-3-------- * * * * * * * * * * *
Repeat Riff C,D,F exactly as there writtin above. Guitar 1 ------------------------------------------------------ ------------------------------------------------------ ------------------------------------------------------ ------------------------------------------------------
-------3--------4-----5-------5----4------------------ -00-00-1-000-00-2-0-0-3-00-00-3-00-2------------------
** ** * *** ** * * * * ** ** ** Guitar 2 ------------------------------------- ------------------------------------- ------------------------------------- ------------------------------------- -------------------------------5----4 ----------------------------00-3-00-2 ** **
Repeat Riff above 4 times with both guitars!! Repeat RiffF like written above. Repeat RiffC twice without the pinch harmonic at the beggining. Repeat RiffG four times with both guitars. Fragments of the Dying Art!!!! Aggresion Released!!!! ----------------------------------------- ----------------------------------------- ----------------------------------------- -----------------------------------------
-4---5-5-5-2-2-2-2-2-2-2-2-4---5-5-5----- -2-0-3-3-3-0-0-0-0-0-0-0-0-2-0-3-3-3----- * * * * * * * * * * *
Fragments of the Dying Art!!! Patience Deceased!!!
----------------------------------------- ----------------------------------------- ----------------------------------------- ----------------------------------------- -4---5-5-5-2-2-2-2-2-2-2-4---5-5-5------- -2-0-3-3-3-0-0-0-0-0-0-0-2-0-3-3-3------- * * * * * * * * * * *
Repeat RiffG four times but end it like this. ,4 --P--------------- --~--------------- --9--------------- ------------------ ------------------ ------------------ ------------------
Repeat RiffC Like writtin above. End song!!!
Tap to rate this tab
 
# A B C D E F G H I J K L M N O P Q R S T U V W X Y Z